Song name
# A B C D E F G H I J K L M N O P Q R S T U V W X Y Z

Eric Prydz - Pjanoo tab

Eric Prydz
Pjanoo
Lead and Bass simultanously
Have Fun! :)

e|-------------------------------------------------------------------------|
B|----11--11---10-10-------------------11--11---10-10----------------------|
G|----12--12---10-10----12--12--12-----12--12---10-10---12--12--12---------|
D|----------------------12--12--12----------------------12--12--12---------|
A|----10--10---8--8-----------------------------8--8-----------------------|
E|----------------------11--11--11-----11- 11-----------8---8---8----------|

e|-------------------------------------------------------------------------|
B|----11--11---10-10-------------------11--11---10-10----------------------|
G|----12--12---10-10----12--12--12-----12--12---10-10---12--12--12---------|
D|----------------------12--12--12----------------------12--12--12---------|
A|----------------------------------------------8--8----10--10--10---------|
E|----8---8----10-10----11--11--11-----11- 11------------------------------|
Tap to rate this tab
# A B C D E F G H I J K L M N O P Q R S T U V W X Y Z