Song name
# A B C D E F G H I J K L M N O P Q R S T U V W X Y Z

Eric Serra - Run Shoot And Jump tab

----------------------------------------------------------------------------
			     Eric Serra - Run Shoot and Jump
----------------------------------------------------------------------------
Tabbed by: Aaron AKA Englundisgod/ Jackson KV
Email: Goosebumps.fan@hotmail.com

************************************

| /   slide up
| \   slide down
| h   hammer-on
| p   pull-off
| ~   vibrato
| +   harmonic
| x   Mute note
| b   Bend
| pb  Pre-bend
| br  Bend release
| pbr Pre-bend release
| brb Bend release bend
. Dotted notes are stuccato
************************************


Tuning : E A D G B E

Played with a clean-ish tone

            0:24                     0:26
e|-------------------------------------------------------------------------|
B|-------------------------------------------------------------------------|
G|-------------------------------------------------------------------------|
D|----(1)/4--4/6--6/7--7/9-------1/4--4/6--6/7--7/9--9/11------------------|
A|-------------------------------------------------------------------------|
E|-------------------------------------------------------------------------|

        0:28
e|-------------------------------------------------------------------------|
B|-------------------------------------------------------------------------|
G|-------------------------------------STUCCATTO---------------------------|
D|----(4)-6-4---7-6-4---6h7h9--6-7------9.-11.-4~~~------------------------|
A|----------------------------PICK-----------------------------------------|
E|----------------------------BOTH-----------------------------------------|

        0:32
e|-------------------------------------------------------------------------|
B|-------------------------------------------------------------------------|
G|------6-4---7-6-4---6h7h9--6-7----9.-11.-6~~~----------------------------|
D|--------------------------PICK-------------------------------------------|
A|--------------------------BOTH-------------------------------------------|
E|-------------------------------------------------------------------------|

        0:38
e|-------------------------------------------------------------------------|
B|-----9-7---10-9-7---9h10h12---9h10--9~~~~--------------------------------|
G|-------------------------------------------------------------------------|
D|-------------------------------------------------------------------------|
A|-------------------------------------------------------------------------|
E|-------------------------------------------------------------------------|


Outro Fading in/out (w/ Volume knob)
    0:45             0:49               0:53             0:58
e|-------------------------------------------------------------------------|
B|-------------------------------------------------------------------------|
G|-------------------------------------------------------------------------|
D|---(6)~~~~~~~~~~~~--(6)~~~~~~~~~~~~---(6)~~~~~~~~~~~~---(6)~~~~~~~~~~~---|
A|-------------------------------------------------------------------------|
E|-------------------------------------------------------------------------|


I know this is 100% accurate, I learned it by ear and it is one of 
my favoritepieces of music. Feel free to leave comments etc
Tap to rate this tab
# A B C D E F G H I J K L M N O P Q R S T U V W X Y Z