Song name
# A B C D E F G H I J K L M N O P Q R S T U V W X Y Z

Eric Serra - Ballad For Mathilda tab

Ballad for Mathilda
Léon: The Professional Original Soundtrack

guitar track alone (does not include tracks for bells or strings)

boyer.peter.9@gmail.com

e|--------------------------------------------------------------------|
B|---------------------------------------------5---3------------------|
G|---------------------------3--------------5----------------0h2---0--|
D|----------5-------------4--------------3------------------0---------|
A|--3---5--------------2------------/5--------------------------------|
E|------------------5--------------------------------------3----------|

    1  +  2  +  3  +  1  +  2  +  3  +  
e|--------0---------------------------|
B|-----1--0-----3-----------3-----1---|
G|--------------0-----------2-----0---|
D|-----------------------0------------|
A|--3---------------------------------|
E|--------------------3---------------|   (x3)

    1  +  2  +  3  +           
e|--0---------------|
B|--------3---------|
G|--------------0---|
D|------------------|
A|------------------|
E|------------------|

    1  +  2  +  3  +  1  +  2  +  3  +  
e|--------0---------------------------|
B|-----1--0-----3-----------3-----1---|
G|--------------0-----------2-----0---|
D|-----------------------0------------|
A|--3---------------------------------|
E|--------------------3---------------|   (x3)

    1  +  2  +  3  +  1  +  2  +  3  + 
e|--------0---------------------------|
B|-----1--0-----3-----------3---------|
G|--------------0-----------2---------|
D|-----------------------0------------|
A|--3---------------------------------|
E|--------------------3---------------|

    1  +  2  +  3  +  1  +  2  +  3  +  1  +  2  +  3  +  1  +  2  +  3  +
e|-----------------0-------------(1)----5-----3-----------3---------------|
B|-----------0--------------3----------(3)----5-------/5-----5--3-----1---|
G|--------0--------------0------------------------------------------------|
D|-----3------------------------------------------------------------------|
A|------------------------------------------------------------------------|
E|--1-----------------3---------------------------------------------------|

    1  +  2  +  3  +  1  +  2  +  3  +  1  +  2  +  3  + 
e|-----------------0------------------------------------|
B|-----------0-h1-----------3-----------------3-----1---|
G|--------0-----------------------0-----------2-----0---|
D|-----3-----------------0-----------------0------------|
A|------------------------------------------------------|
E|--1-----------------3------------------3--------------|
 
e|--0---------------------------------|
B|--------3---------------------------|
G|--------------0---------------------|
D|------------------------------------|
A|------------------------------------|
E|------------------------------------|

    1  +  2  +  3  +  1  +  2  +  3  +  
e|--------0---------------------------|
B|-----1--0-----3-----------3-----1---|
G|--------------0-----------2-----0---|
D|-----------------------0------------|
A|--3---------------------------------|
E|--------------------3---------------|  (x3)

    1  +  2  +  3  +  1  +  2  +  3  + 
e|--------0---------------------------|
B|-----1--0-----3-----------3---------|
G|--------------0-----------2---------|
D|-----------------------0------------|
A|--3---------------------------------|
E|--------------------3---------------|

    1  +  2  +  3  +  1  +  2  +  3  +  1  +  2  +  3  +  1  +  2  +  3  + 
e|-----------------------------------------------0--------3-----1-----0---|
B|-----------1--------------3-----3-----------3-----1--------------------1|
G|--------0-----0--------------0-----0-----0-----------0-----0-----0------|
D|-----3-----------3-----0------------------------------------------------|
A|--0-----------------2-----------------3---------------------------------|
E|------------------------------------------------------------------------|

    1  +  2  +  3  +  1  +  2  +  3  +  1  +  2  +  3  +  1  +  2  +  3  + 
e|-----------------------------------------------0--------3-----1-----0---|
B|-----------1--------------3-----3-----------3-----1--------------------1|
G|--------0-----0--------0-----0-----0-----0-----------0-----0-----0------|
D|-----3-----------3------------------------------------------------------|
A|--0-----------------2-----------------3---------------------------------|
E|------------------------------------------------------------------------|

    1  +  2  +  3  +  1  +  2  +  3  +  
e|--------------------------------1---|
B|--3-----1-----4--1--3-----1--------1|
G|-----------1-----------------1------|
D|------------------------------------|
A|------------------------------------|
E|------------------------------------|

    1  +  2  +  3  +  1  +  2  +  3  +
e|--------------------3-----1---------|
B|--3-----1-----4--1-----------1--4--1|
G|-----------1------------------------|
D|------------------------------------|
A|------------------------------------|
E|------------------------------------|

    1  +  2  +  3  +  1  +  2  +  3  +  
e|------------------------------------|
B|--3-----1-----4--1--3-----1---------|
G|-----------1------------------------|
D|------------------------------------|
A|------------------------------------|
E|------------------------------------|

    1  +  2  +  3  +  1  +  2  +  3  +  
e|--------0---------------------------|
B|-----1--0-----3-----------3-----1---|
G|--------------0-----------2-----0---|
D|-----------------------0------------|
A|--3---------------------------------|
E|--------------------3---------------|

    1  +  2  +  3  +  1  +  2  +  3  +  1  +  2  +  3  +  
e|--------0---------------------------------------------|
B|-----1--0-----3----------(3)--------------------------|
G|--------------0-----------2-----------3---------------|
D|-----------------------0--------2-----3---------------|
A|--3---------------------------------------------------|
E|--------------------3---------------------------------|
Tap to rate this tab
# A B C D E F G H I J K L M N O P Q R S T U V W X Y Z