Song name
# A B C D E F G H I J K L M N O P Q R S T U V W X Y Z

Eric Weissberg - Dueling Banjos tab

This is only the guitar part. If you play this tab for both parts they sound about the
This is from the cd (that you can find on iTunes) called "Dueling Banjos (Soundtrack from
Motion Picture)". This is just the first half. I will try the fast part but if anyone 
to contribute to it that will be much appreciated :] Im also not sure on the
part so just let me know.

Tuning:Standard

e|-------------------------------------------------------------------------|
B|-------------------------------------------------------------------------|
G|-------------------------------------------------------------------------|
D|-------------------------------------------------------------------------|
A|-44454-------44454-------44454-------44454-------------------------------|
E|-55555-------55555-------55555-------55555-------------------------------|

e|-------------------------------------------------------------------------|
B|-2-3-5-2-3-0-2--------------------------2-3-5-2-3-0-2--------------------|
G|---------------2-4------------------------------------2-4----------------|
D|-------------------------------------------------------------------------|
A|-------------------------------------------------------------------------|
E|-------------------------------------------------------------------------|

e|-------------------------------------------------------------------------|
B|---------2---2-----------------------------------------------------------|
G|---2-2-4---2---4---------------------------------------------------------|
D|-2-----------------------------------------------------------------------|
A|-------------------------------------------------------------------------|
E|-------------------------------------------------------------------------|

e|-------------------------------------------------------------------------|
B|-------------------------------------------------------------------------|
G|-------------------------------------------------------------------------|
D|-------------------------------------------------------------------------|
A|-----2-4-5-7-5-4----------------------2-4-5-7-5-4------------------------|
E|-555------------------------------555------------------------------------|

e|-------------------------------------------------------------------------|
B|-------------------------------------------------------------------------|
G|-------------------------------------------------------------------------|
D|-----2-4-5-7-5-4---------------------------------------------------------|
A|-555----------------------------------2-4-5-7-4-4------------------------|
E|----------------------------------555------------------------------------|

e|---------------------------------------------------------------------------|
B|---------------------------------------------------------------------------|
G|---------------------------------------------------------------------------|
D|-----4-6-7-9-7-6-----------------------------------------------------------|
A|-777-----------------------------------------------------------------------|
E|---------------------------------------------------------------------------|


e|-------------------------------------------------------------------------|
B|-------------------------------------------------------------------------|
G|-------------------------------------------------------------------------|
D|-------------------------------------------------------------------------|
A|-44454-------44454-------------------------------------------------------|
E|-55555-------55555-------------------------------------------------------|

e|-------------------------------------------------------------------------|
B|-2-3-5-2-3-0-2--------------------------2-3-5-2-3-0-2--------------------|
G|---------------2-4------------------------------------2-4----------------|
D|-------------------------------------------------------------------------|
A|-------------------------------------------------------------------------|
E|-------------------------------------------------------------------------|

e|-------------------------------------------------------------------------|
B|---------2---2-----------------------------------------------------------|
G|---2-2-4---2---4---------------------------------------------------------|
D|-2-----------------------------------------------------------------------|
A|-------------------------------------------------------------------------|
E|-------------------------------------------------------------------------|
Tap to rate this tab
# A B C D E F G H I J K L M N O P Q R S T U V W X Y Z