Song name
# A B C D E F G H I J K L M N O P Q R S T U V W X Y Z

Erics Trip - May 11 tab

-##
Date: Mon, 11 Dec 1995 13:20:18 +0100
From: Anne-Paulien Helmond 
Subject: Eric's Trip - May 11 (tab)

Eric's Trip - May 11
--------------------

Transcribed by: Sem van Blerkem

+ = up
- = down

Intro:

Asus2
   -   -  -   -
|------0------0--|  
|------0------0--|  
|------2------2--|  
|------2------2--|  
|--0------0------|  
|----------------| 

Verse:

Asus2               G              Fmaj7

   -   -     +  -                -   -     +  - 	  -   -     +  -
|------0~~0--0--0--|          |------3~~3--3--3--|     |------0~~0--0--0--|
|------0~~0--0--0--|          |------3~~3--3--3--|     |------1~~1--1--1--|
|------2~~2--2--2--|          |------0~~0--0--0--|     |------2~~2--2--2--|
|------2~~2--2--2--|          |------0~~0--0--0--|     |--3---------------|
|--0---------------|          |------x-----------|     |------------------|
|------------------|          |--3---------------|     |------------------|

Outro
   -   -  -   -
|------0------0--|
|------1------1--|
|------2------2--|
|--3------3------|
|----------------|
|----------------|
Tap to rate this tab
# A B C D E F G H I J K L M N O P Q R S T U V W X Y Z