Song name
# A B C D E F G H I J K L M N O P Q R S T U V W X Y Z

Ericson Alexander Molano - Siento Su Gloria tab

Siento Su Gloria- Ericson Alexander Molano



    G    Bm7   Am7    D 
E---3-----2-----0-----2----/
B---0-----3-----1-----3----/
G---0-----2-----0-----2----/
D---0-----4-----2-----0----/
A---2-----2-----0-----0----/
E---3-----------0----------/

    A    C#m7  Cm7   Bm7    E
E---0-----4-----3-----2-----0----/
B---2-----5-----4-----3-----0----/
G---2-----4-----3-----2-----1----/
D---2-----6-----5-----4-----2----/
A---0-----4-----3-----2-----2----/
E---------------------------0----/





G
TOMAME SENOR
         Bm7
YO TE ENTREGO EL CORAZON
 Am7
NUEVO QUIERO SER
     D 
CAMBIAME CON TU AMOR
G
TU ERES REAL
     Bm7
MILAGROSO REDENTOR
   Am7
MANIFIESTATE AQUI
    D 
AL RENDIRTE ADORACION

CORO
  G
SIENTO SU GLORIA
          Bm7
ES SU PRESENCIA
        Am7     A--0--2-3----/
SON SUS MANOS
          D 
SANANDO MI SER

SOLO
E-------------------------------------/
B-------------------------------------/
G----------------------------7/9~7----/
D-------7-7~-9-7-9/11~-12-11-------11~/
A---7/9-------------------------------/
E-------------------------------------/

E-----------------------------------/
B-----------------------------------/
G-----------------------------------/
D--9-7-11----11-11--9-7-------------/
A-----------------------11----------/
E-----------------------------------/

E-------------------------/
B--------------7--10-12-10/
G----------7h9------------/
D------7h9----------------/
A--7h9--------------------/
E-------------------------/


E-8/10-9---------------------------------------------/
B--------12-10--10/12-12/9--9h10p9-------------------/
G---------------------------------9h11p9-------------/
D---------------------------------------12p11p9--9p7-/
A----------------------------------------------------/
E----------------------------------------------------/


    A
SIENTO SU GLORIA
     C#m7
EN SU PRESCENCIA
C#m7 Cm7     Bm7    A--2-4-5----/
SON SUS MANOS
     E
SANANDO MI SER
Tap to rate this tab
 
# A B C D E F G H I J K L M N O P Q R S T U V W X Y Z