Song name
# A B C D E F G H I J K L M N O P Q R S T U V W X Y Z

Erik Hassle - Hurtful tab

-----------------------------------------------------------------------------
			    HURTFUL - Eric Hassle
-----------------------------------------------------------------------------
Tabbed by:Rich Spencer
Email:spencer.n.co@gmail.com

Tuning:DADGBE (Drop D)


Structure & Lyrics Below



Verse



e|-----------------|-----------------|-----------------|-----------------|
B|-----------------|-----------------|-----------------|-----------------|
G|-8-8-8-8-8-8-8-8-|-8-8-8-8-8-8-8-8-|-6-6-6-6-6-6-6-6-|-6-6-6-6-6-6-6-6-|
D|-9-9-9-9-9-9-9-9-|-9-9-9-9-9-9-9-9-|-8-8-8-8-8-8-8-8-|-8-8-8-8-8-8-8-8-|
A|-----------------|-----------------|-----------------|-----------------|
D|-9-9-9-9-9-9-9-9-|-9-9-9-9-9-9-9-9-|-8-8-8-8-8-8-8-8-|-8-8-8-8-8-8-8-8-|
       
                                      1._________________ 2._______________
e|-----------------|-----------------|------------------||-----------------|
B|-----------------|-----------------|------------------||-----------------|
G|-4-4-4-4-4-4-4-4-|-3-3-3-1-1-1-1-1-|-4-4-4-4-4-4-4-4-o||-4-4-4-4-4-4-4-4-|
D|-6-6-6-6-6-6-6-6-|-4-4-4-2-2-2-2-2-|-6-6-6-6-6-6-6-6-o||-6-6-6-6-6-6-6-6-|
A|-----------------|-----------------|------------------||-----------------|
D|-6-6-6-6-6-6-6-6-|-4-4-4-2-2-2-2-2-|-6-6-6-6-6-6-6-6--||-6-6-6-6-6-6-6-6-|


e|-----------------||-------------------||
B|-----------------||-------------------||
G|-3-3-3-1-1-1-1-1-||o-1-1-1-1-1-1-1-1-o||
D|-4-4-4-2-2-2-2-2-||o-2-2-2-2-2-2-2-2-o||
A|-----------------||-------------------||
D|-4-4-4-2-2-2-2-2-||--2-2-2-2-2-2-2-2--||



Bridge (Quaver strumming throughout)


e|-----------------|-----------------|-----------------|----------------|
B|-9---------------|-4---------------|-7---------------|-9--------------|
G|-8---------------|-4---------------|-8---------------|-8--------------|
D|-9---------------|-6---------------|-8---------------|-9--------------|
A|-7---------------|-6---------------|-6---------------|-7--------------|
D|-----------------|-----------------|-----------------|----------------|


e|-----------------|-----------------|-----------------|
B|-9---------------|-4---------------|-2---------------|
G|-8---------------|-4---------------|-3---------------|
D|-9---------------|-6---------------|-4---------------|
A|-7---------------|-6---------------|-4---------------|
D|-----------------|-----------------|-----------------|


CHORUS 1 (Quaver Strumming throughout)


e|-----------------|-----------------|-----------------|-----------------|
B|-5-5-5-5-4-4-4-4-|-2---------------|-5-5-5-5-4-4-4-4-|-2-2-2-2---------| 
G|-6-6-6-6-4-4-4-4-|-3---------------|-6-6-6-6-4-4-4-4-|-3-3-3-3-1-1-1-1-|
D|-6-6-6-6-4-4-4-4-|-4---------------|-6-6-6-6-4-4-4-4-|-4-4-4-4-2-2-2-2-|
A|-4-4-4-4-2-2-2-2-|-4---------------|-4-4-4-4-2-2-2-2-|-4-4-4-4---------|
E|-----------------|-----------------|-----------------|---------2-2-2-2-|



e|----------------|
B|----------------|
G|-1--------------|
D|-2--------------|
A|----------------|
E|-2--------------|


CHORUS 2 (Quaver Strumming throughout)

                                     x4
e|-----------------|------------------||
B|-5-5-5-5-4-4-4-4-|-2----------------||
G|-6-6-6-6-4-4-4-4-|-3---------------o||
D|-6-6-6-6-4-4-4-4-|-4---------------o||
A|-4-4-4-4-2-2-2-2-|-4----------------||
E|-----------------|------------------||


CHORUS 3 (Single Strums)

                                     x2
e|-----------------|------------------||
B|-5-------4-------|-2----------------||
G|-6-------4-------|-3---------------o||
D|-6-------4-------|-4---------------o||
A|-4-------2-------|-4----------------||
E|-----------------|------------------||




STRUCTURE


VERSE ONE
BRIDGE
CHORUS 1
VERSE TWO
BRIDGE
CHORUS 2
INSTRUMENTAL (BRIDGE)
CHORUS 3
BRIDGE (INSTRUMENTAL)
BRIDGE
CHORUS



LYRICS


I used to laugh it off
I used to look the other way
I used to save them troubles for another day
I kept my fingers crossed
I used to never take the blame
I'd pull a sunshine story in a pouring rain
The more I had to change I'd just stay the same

(The same, the same, I stayed the same)


You don't know what you got till you're missing it a lot
I had to go throw it away
I was wrong from the start from the bottom of my heart I apologize
What I did to you was hurtful
What I'm going through is hurtful

I used to buy my time
I used to beat around the bush
I'd rather give my ego another push
I used to be a fool
It was a foolish game I played
And it's a fool's faith coming mistakes I made
Once I had it right it was all too late

(Too late, too late, too little too late)
Find More lyrics at www.sweetslyrics.com

You don't know what you got until you're missing it a lot
I had to go throw it away
I was wrong from the start from the bottom of my heart I apologize
What I did to you was hurtful
What I'm going through is hurtful
What I'm going through is hurtful
It is hurtful
It's hurtful

Oh what I did to you
(What I did to you)

What I did to you was hurtful
What I'm going through is hurtful

I was wrong from the start from the bottom of my heart I apologize
What I did to you was hurtful
And what I'm going through is hurtful

************************************

| /   slide up
| \   slide down
| h   hammer-on
| p   pull-off
| ~   vibrato
| +   harmonic
| x   Mute note
| b   Bend
| pb  Pre-bend
| br  Bend release
| pbr Pre-bend release
| brb Bend release bend
Tap to rate this tab
# A B C D E F G H I J K L M N O P Q R S T U V W X Y Z