Song name
# A B C D E F G H I J K L M N O P Q R S T U V W X Y Z

Erik Hassle - Dont Bring Flowers tab

Song:    Don't Bring Flowers
Artist:  Erik Hassle
Tabber: Christ12

Intro/Verse
|---------------------|---------------------|
|---------------------|---------------------|
|---------------------|---------------------|
|---------3-2---------|---------3-2---------|
|-0-3---------3-5-7---|-0-3--------2-3-5/---| <-- Slide from 5th to 1st
|-----1-1-------------|-----1-1-------------|

1st Chorus

"Don't bring flowers after I'm dead..."           C
|--13--12--10---------|                           h
|---------------------|                           r
|---------------------|                           i
|---------------------|                           s
|---------------------|                           t
|---------------------|                           1
                                                  2
"Don't bring flowers after I'm dead..."
|--13--12--10---------|
|---------------------|
|---------------------|
|---------------------|
|---------------------|
|---------------------|

"Save your givings for the living instead..."
|--10--8--7-----------|
|---------------------|
|---------------------|
|---------------------|
|---------------------|
|---------------------|

"Don't bring flowers after I'm dead"

Verse
|---------------------|---------------------|
|---------------------|---------------------|
|---------------------|---------------------|
|---------3-2---------|---------3-2---------|
|-0-3---------3-5-7---|-0-3--------2-3-5/---|
|-----1-1-------------|-----1-1-------------|

Chorus

"Don't bring flowers after I'm dead..."
|--13--12--10---------|
|---------------------|
|---------------------|
|---------------------|
|---------------------|
|---------------------|

"Don't bring flowers after I'm dead..."
|--13--12--10---------|
|---------------------|
|---------------------|
|---------------------|
|---------------------|
|---------------------|

"Save your givings for the living instead..."
|--10--8--7-----------|
|---------------------|
|---------------------|
|---------------------|
|---------------------|
|---------------------|

"Don't bring flowers after I'm dead"

2nd chorus
|--13--12--10--8------|--13--12--10--8------|
|---------------------|---------------------|
|---------------------|---------------------|
|---------------------|---------------------|
|---------------------|---------------------|
|---------------------|---------------------|

|--15--13--12--10-----|--15--13--12--10-----|
|---------------------|---------------------|
|---------------------|---------------------|
|---------------------|---------------------|
|---------------------|---------------------|
|---------------------|---------------------|

|--13--12--10--8------|--13--12--10--8------|
|---------------------|---------------------|
|---------------------|---------------------|
|---------------------|---------------------|
|---------------------|---------------------|
|---------------------|---------------------|

|--15--13--12--10-----|--15--13--12--10-----|
|---------------------|---------------------|
|---------------------|---------------------|
|---------------------|---------------------|
|---------------------|---------------------|
|---------------------|---------------------|

|--13--12--10--8------|
|---------------------|
|---------------------|
|---------------------|
|---------------------|
|---------------------|

1st Chorus

"Don't bring flowers after I'm dead..."
|--13--12--10---------|
|---------------------|
|---------------------|
|---------------------|
|---------------------|
|---------------------|

"Don't bring flowers after I'm dead..."
|--13--12--10---------|
|---------------------|
|---------------------|
|---------------------|
|---------------------|
|---------------------|

"Save your givings for the living instead..."
|--10--8--7-----------|
|---------------------|
|---------------------|
|---------------------|
|---------------------|
|---------------------|

"Don't bring flowers after I'm dead"

Enjoy! =D
Tap to rate this tab
 
# A B C D E F G H I J K L M N O P Q R S T U V W X Y Z