Song name
# A B C D E F G H I J K L M N O P Q R S T U V W X Y Z

Erik Mongrain - Airtap tab

Open F
Tuning:  F C F C A F


 Right Hand

|-----------------|-------------------|-----------------|------------------|
|-----------------|-------------------|-----------------|------------------|
|-----------------|-------------------|-----------------|------------------|
|-----------------|-------------------|-----------------|------------------|
|-----------------|-------------------|-----------------|------------------|
|-----------------|-------------------|-----------------|------------------|
|                                                                          |
|                                                                          |
|                                                                          |
|Left Hand                                                                 |
|                                                                          |
|-----------------|-------------------|-----------------|------------------|
|-----------------|-------------------|-----------------|------------------|
|--7---7---7---7--|--7---7---7---7p0--|--7---7---7---7--|--7---7---7---7p0-|
|-----------------|-------------------|-----------------|------------------|
|--8---8---8---8--|--8---8---8---8p0--|--7---7---7---7--|--7---7---7---7p0-|
|-----------------|-------------------|-----------------|------------------|






 Right Hand
                                                                  harm----|
|-----------------|-------------------|-----------------|---------12-12----|
|-----------------|-------------------|-----------------|---------------19-|
|-----------------|-------------------|-----------------|------------------|
|-----------------|-------------------|-----------------|------------------|
|-----------------|-------------------|-----------------|------------------|
|-----------------|-------------------|-----------------|------------------|
|                                                                          |
|                                                                          |
|                                                                          |
|Left Hand                                                                 |
|                                                                          |
|-----------------|-------------------|-----------------|------------------|
|-----------------|-------------------|-----------------|------------------|
|--7---7---7---7--|--7---7---7---7p0--|--7---7---7---7--|--7---7---7-----7-|
|-----------------|-------------------|-----------------|------------------|
|--8---8---8---8--|--8---8---8---8p0--|--7---7---7---7--|--7---7---7---7---|
|-----------------|-------------------|-----------------|------------------|
   



Tap to rate this tab
# A B C D E F G H I J K L M N O P Q R S T U V W X Y Z