Song name
# A B C D E F G H I J K L M N O P Q R S T U V W X Y Z

Erik Og Kriss - Medvind tab

Help us improve GuitareTab! Take a short survey!
-------------------------------------------------------------------------------
			     Medvind - Erik Og Kriss
-------------------------------------------------------------------------------
                             http://erikogkriss.no/

Tunning:Standard


Intro/Verse
E||----------------------------------|------------------------|                 __
B||--10------------10--8----------8--|--6---------6-----------|                   |
G||------10-----10--------9-----9----|-----7----7----9--------|                   |
D||---------12--------------10-------|-------8----------------|                   |
A||----------------------------------|------------------------|                   |
E||----------------------------------|------------------------|                   |
                                                                                  |2 times
                                                                                  | (X2)          
|-----------------------------------------|------------------------------|        |
|--10------------10/13-13------------13--|--11------------11--10---------|        |
|------10-----10------------12-----12-----|------10-----10---------------|        |
|---------12-------------------14---------|---------12-------------------|        |
|-----------------------------------------|------------------------------|        |
|-----------------------------------------|------------------------------|      __|




Outro
Rhythm (with variations)


E||--5----------8---------|--6---------5----------|--5----------8---------|--6---------5--------|
B||--6----------8---------|--6---------5----------|--6----------8---------|--6---------5--------|
G||--7----------9---------|--7---------6----------|--7----------9---------|--7---------6--------|
D||--7---------10---------|--8---------7----------|--7---------10---------|--8---------7--------|
A||--5---------10---------|--8---------7----------|--5---------10---------|--8---------7--------|
E||--x----------8---------|--6---------5----------|--x----------8---------|--6---------5--------| 
 X2


|--6-------5--5-5-5-5-5--||
|--6-------5--5-5-5-5-5--||
|--7-------6--6-6-6-6-6--||
|--8-------7--7-7-7-7-7--||
|--8-------7--7-7-7-7-7--||
|--6-------5--5-5-5-5-5--||

| /  slide up
| \  slide down
| h  hammer-on
| p  pull-off
| ~  vibrato
| +  harmonic
| x  Mute note
Related for Medvind tab