Song name
# A B C D E F G H I J K L M N O P Q R S T U V W X Y Z

Erik Santos - Kung Akin Ang Mundo chords

Highlighted       Show chord diagrams
para po to sa ... ewan :)) pa add sa facebook . renztopacio@yahoo.com

Intro 1:
        [---2--3----2------2-----3----5------|
        [---------3-----3-----3----3---------|
        [------------------------------------|  2x
        [------------------------------------|
        [---3-------3------2----------2------|
        [------------------------------------|

Intro 2:
        [---1--0-------------------------------|
        [--------3----1--3------------3-----3--|
        [----------------------------2------2--|
        [--------------------------0--------0--|
        [---1----1----1--------0---------------|
        [--------------------------------------|



A                 Bm
Kung ako ang may-ari ng mundo,
A          Bm 
ibibigay lahat ng gusto mo,
D                C#m
Araw-araw pasisikatin ang araw,
D                  C#m
buwan-buwan pabibilugin ko ang buwan
Bm             E 
para sa'yo, para sa'yo

CHORUS:
D                             C#m
Susungkitin mga bituin, para lang makahiling,
     Bm
na sana'y maging akin, 
      E
puso mo at damdamin,
       
       D
kung pwede lang, kung kaya lang, 
      C#m
kung akin ang mundo,
       Bm                        E
ang lahat ng ito'y iaalay ko sa'yo...
(just reapt verse chords then do chorus)

verse 2
Kung ako ang hari ng puso

Lagi kitang pababantay kay kupido,

Hindi na luluha ang 'yong mga mata,

mananatiling may ngiti sa 'yong labi,

para sa'yo, para sa'yo,
Tap to rate this tab
# A B C D E F G H I J K L M N O P Q R S T U V W X Y Z