Song name
# A B C D E F G H I J K L M N O P Q R S T U V W X Y Z

Erik Satie - Gnossienne No 1 tab

GNOSSIENNE N1 - Erik Satie

An interpretation by Christopher Davis
tuning: DADGBE

Play it, you'll like it!

The order of the different parts is: AABBCCBBDDBBCCBB

A.

E----0-3-2--0----|----------------|----0-3-2--0----|--4/5---4/5-----|
B----1------1----|--5\4---5\4-----|----1------1----|----------------|
G----2------2----|------5-----5---|----2------1----|------5-----5---|
D----------------|------7-----7---|----------------|------7-----7---|
A--0-------------|--0-------------|--0-------------|--0-------------|
D----------------|----------------|----------------|----------------|

E----0-3-2--0----|----------------|----------------|----------------|
B----1------1----|--5\4---1p0-----|----------------|--1p0-----------|
G----2------2----|------5-----2---|--2h4-2h4---4---|------4p2---2---|
D----------------|------7-----2---|-------2----2---|-------2----2---|
A--0-------------|--0-------------|----------------|--0-------------|
D----------------|----------------|--2-------------|----------------|

E----------------|
B----------------|
G------2------2--|
D------2------2--|
A--0-------------|
D----------------|


B.

E----------------|----------------|----------------|
B--1h3---1p0-----|--1h3---1p0-----|--1p0-----------|
G------2-----2---|------2-----3---|------4p2---2---|
D------3-----3---|------3-----3---|-------2----2---|
A----------------|----------------|--0-------------|
D--0-------------|--0-------------|----------------|

C.

E----0--------7-10-7-|--5--7p5-----------|--7p5---5p4--------|
B------7-9-10--------|------5-------5----|------5-----5------|
G--------------------|------5-------5----|------5-----5------|
D--------------------|-------------------|-------------------|
A--0-----------------|--0----------------|---0---------------|
D--------------------|-------------------|-------------------|

E--1p0---------------|-------------------|-------------------|
B------1--5\4--------|--1p0--------------|-------------------|
G------2------5------|-------4p2-2-------|-------2-------2---|
D-------------7------|--------2--2-------|-------2-------2---|
A---0----------------|---0---------------|--0----------------|
D--------------------|-------------------|-------------------|


D.

E----0-3-2--0----|----------------|----0-3-2--0----|--4/5-----------|
B----1------1----|--5\4-----------|----1------1----|----------------|
G----2------2----|------5-----5---|----2------2----|------5-----5---|
D----------------|------7-----7---|----------------|------7-----7---|
A--0-------------|--0-------------|--0-------------|--0-------------|
D----------------|----------------|----------------|----------------|


Et voila
Tap to rate this tab
 
# A B C D E F G H I J K L M N O P Q R S T U V W X Y Z