Guitaretab - guitar tabs
Song name
# A B C D E F G H I J K L M N O P Q R S T U V W X Y Z

Erik Satie - Gymnopedie No 1 tab

                             Gymnopedie No.1 by Erik Satie

##------------------------------------------------------------------------------##

         From: Andrea Prada (editing of tab), flutterby_111@hotmail.com
         With thanks to Mario Baptista for the great tab

##------------------------------------------------------------------------------##


~ keep the same note or bend
/ slide up
\ slide down


Play it slowly and sadly in 3/4, remember to hold some of the notes, just listen to the song
for more accuracy regarding the keeping of notes, when to bend the notes, sliding, and so forth…
I think this is as close as it gets. Enjoy!!!

|-----4-----|-----4-----|-----4-----|-----4-----|-----4-(\)7-|--5---4----|-----------|
|-----5-----|-----4-----|-----5-----|-----4-----|-----5------|------4--4-|-----4-\5--|
|-----6-----|-----4-----|-----6-----|-----4-----|-----6------|------4----|--6--6-----|
|-----------|-----------|-----------|-----------|------------|-----------|-----------|
|-~0--------|-----------|-~0--------|-----------|-~0---------|-----------|-~0--------|
|-----------|-~0--------|-----------|-~0--------|------------|-~0--------|-----------|


|-----4-----|-----4-----|-----4-----|-----4-----|-----4-----|-----4-(\)7-|-5---4-----|
|-----4-----|-----5-----|-----4-----|-----5-----|-----4-----|-----5------|-----4--4--|
|--4--------|-----6-----|-----4-----|-----6-----|-----4-----|-----6------|-----4-----|
|-----------|--6--------|-----------|-----------|-----------|------------|-----------|
|-----------|-~0--------|-----------|-~0--------|-----------|-~0---------|-----------|
|-~0--------|-----------|~0---------|-----------|~0---------|------------|~0---------|
[ Tab from: http://www.guitaretab.com/e/erik-satie/44278.html ]
|-----------|------4----|-----------|-4---------|-2---------|-----------|-----0-----|
|-----4-\-5-|------4----|-4---------|------5----|-----2----------5------|-----0-----|
|--6--6-----|-4---------|-----4-----|------6----|-----2-----|----2------|-----0-----|
|-----------|-----------|-----6-----|-----------|-----------|-4---------|-----------|
|-~0--------|-----------|-----------|-4---------|-----------|-----------|-----------|
|-----------|~0---------|-4---------|-----------|-2---------|-----------|-~0--------|

                                                                                .
|-----------|-----------|-~0--------|-~0--------|--------~0-|-~2-~3-~5--|-~7-----~0---|
|----2-(\)3-|-~7---5----|-----3-(\)2|-----~0----|----~0-----|-----------|-----3-------|
|-4--4------|------6--6-|-----4-----|-----~0----|----~0-----|-----------|-----4-------|
|-----------|-----------|-----------|-----------|-----------|-----------|-------------|
|-2---------|-----------|-----------|-----------|-----------|-----------|-------------|
|-----------|-~0--------|-~0--------|-~0--------|-~0--------|-~0--------|-~0----------|


|-----------|-~0--------|--------~0-|-~5--------|
|-~7---5----|-----~0----|----~0-----|------2----|
|------6--6-|-----~0----|----~0-----|------2----|
|-----------|-----------|-----------|-----------|
|-----------|-----------|-----------|-----------|
|-~0--------|-~0--------|-~0--------|-~2--------|

|-4---------|-----------|---------2-|---------2-|------2--4-|--10-------|--12-------|
|-----4-----|-----------|--4---5----|--4---5----|--5--------|--7--------|--9--------|
|-----4-----|-6---4---6-|-----------|-----------|-----------|--7--------|--9--------|
|-----------|-----6-----|--4--------|--4--------|--4--------|--7--------|--9--------|
|-----------|-4---------|-----------|-----------|-----------|-----------|-----------|
|-4---------|-----------|--2--------|--2--------|--2--------|--7--------|--0--------|


|--12-------|
|--12-------|
|--12-------|
|-----------|
|-----------|
|--12-------|
Related for Gymnopedie No 1 tab
Gymnopedie No 1 chords by Erik Satie