Song name
# A B C D E F G H I J K L M N O P Q R S T U V W X Y Z

Erik Sumo Band - The Trouble Soup tab

Erik Sumo Band - The Trouble Soup

Intro (2x)

e----------------------------------------------------------------|
B----------------------------------------------------------------|
G----------------------------------------------------------------|
D----------------------------------------------------------------|
A-3-3-5---3-3-5---3-5-6-5-3-5-3-----3-3-5---3-3-5-------5-3------|
E-------------------------------4-------------------3-4-----4-3--|

Verse 1 (2x)

e-----------------------------------------------------|
B-----------------------------9-------(12)------------|
G----------------33-55-------10---(8)--12-------------|
D-------33-44-55------------(10)---8---12-------------|
A-33-66----------------6-8---------6---10-------------|
E-----------------------------------------------------|

Verse 2 (4x)

e----------------------------------------------------|
B---4---8---6----6---8---12--------------------------|
G---5---8---5--5-----8---12---with-little variaton---|
D---5---8---7--------8---12--------------------------|
A--(3)-(6)-(8)------(6)-(10)-------------------------|
E----------------------------------------------------|

Verse 3 (4x)

e--------------------------------------------------------|
B--4-----------------------------------------------------|
G--5------8-8-10-10---------------------------8-8-10-10--|
D--5-(8x)-8-8-10-10--------33-55-------33-55--8-8-10-10--|
A--3------6-6--8--8--33-66-------33-66--------6-6--8--8--|
E--------------------------------------------------------|

Verse 1 (2x)

Verse 2 (4x)

Verse 3 (4x)

Little break part

e----------------------------------------------------------------------|
B----------------------------------------------------------------------|
G----------------------------------------------------------------------|
D-------------------------------------------------------------8-10-----|
A--3-3-5--3-3-5------3-5-3---5-------------------------8-9-10----------|
E----------------3-4-------4-----bass part next->-8-11-------------11--|

Solo (mad.)

Verse 3 (4x)


please rate, have fun

http://eriksumo.hu/
Tap to rate this tab
# A B C D E F G H I J K L M N O P Q R S T U V W X Y Z