Song name
# A B C D E F G H I J K L M N O P Q R S T U V W X Y Z

Erin Mccarley - Pitter-pat tab

Pitter-Pat: Erin McCarley


Intro/ Verse:

Eb|---------------------------------|
Bb|-----------------------0---------|
Gb|-4-4-4-4-4-4-4-4---0-------0--0--|
Db|-----------------2---2---2---2---|
Ab|---------------------------------|
Eb|3-3-3-3-3-3-3-3-0-0-0-0-0-0-0----|


Prechorus

Eb|-------------------------------------------------|
Bb|-------------------------------------------------|
Gb|---12--12--12--12--11--11--11--11-9--9--9--9-----|
Db|-------------------------------------------------|
Ab|-------------------------------------------------|
Eb|-12--12--12--12--10--10--10--10--8--8--8--8------|

Eb|------------0--------------------|
Bb|---------------------------------|
Gb|--5--5-5--5----------------------|
Db|---------------------------------|
Ab|---------------------------------|
Eb|-5--5----5-----------------------|

Chorus

Eb|--------------------------------------------------|
Bb|--------------------------------------------------|
Gb|--9-9-9-9-4-4-4-4--11--11--11--11--12--12--12--12-|
Db|--------------------------------------------------|
Ab|--------------------------------------------------|
Eb|-8-8-8-8-3-3-3-3-10--10--10--10--12--12--12--12---|

Bridge

Eb|----------------------------------------------------------------------------------|
Bb|----------------------------------------------------------------------------------|
Gb|--7-7-7-7-7-7-7-7-9-9-9-9-9-9-9-9-8-8-8-8-8-8-8-8--11--11--11--11--11--11--11--11-|
Db|----------------------------------------------------------------------------------|
Ab|----------------------------------------------------------------------------------|
Eb|-7-7-7-7-7-7-7-7-8-8-8-8-8-8-8-8-8-8-8-8-8-8-8-8-10--10--10--10--10--10--10--10---|


Eb|---------------------------------|
Bb|-12-----11----9------------------|
Gb|---------------------------------|
Db|---------------------------------|
Ab|---------------------------------|
Eb|-12-----10----8------------------|


Chorus

Eb|--------------------------------------------------|
Bb|--------------------------------------------------|
Gb|--9-9-9-9-4-4-4-4--11--11--11--11--12--12--12--12-|
Db|--------------------------------------------------|
Ab|--------------------------------------------------|
Eb|-8-8-8-8-3-3-3-3-10--10--10--10--12--12--12--12---|

The chorus just keeps on repeating till the song fades out.
Tap to rate this tab
# A B C D E F G H I J K L M N O P Q R S T U V W X Y Z