Song name
# A B C D E F G H I J K L M N O P Q R S T U V W X Y Z

Erin Mccarley - Sticky-sweet chords

Highlighted       Show chord diagrams
VERSES

      B
1. Here's to who you are to me
2. music in my head of heart-shaped

        Bb
1. No wishing well could ever bring
2.   melodies in red, if this

        E	                D	        C#
1. You celebrate 		            my smile
2. is  just the start, I can't wait to hear the end


         B
1. You color my depressive mood
2. The hours come and go, as we

         Bb
1. From gray to the most brilliant blue
2. lay wrapped up tight in your silver glow

           E 	      D                 C#
1. Shape every tear into a candy sky.         (to Prechorus)
2. I've  never been this content to be.      (to Prechorus)


PRECHORUS

G#m	    	       B
Take me home to your secret

G#m              E
Take me home          to your wild sanctuary.


CHORUS
B		       Bb                   E
   I don't wanna hold off because you're sticky

                           B
You're sticky sweet on me

                   Bb                   E                          B
I don't wanna hold off	'cause I'm inspired by your offbeat dreams

                     Bb          E
You make me never forget how it feels to be that fortunate someone

G#m                 G		         E
    I don't wanna,      I don't wanna,       I don't wanna hold off

You're getting to me.

(1st time to verse 2, 2nd time to Bridge, 3rd time to Outro)

BRIDGE
E                        E7
       Can you hear the angels singing

G#m   A#m        B         D#     E
      While you lay your hands on me?

                  E7
Can you feel the bells are ringing?

G#m     A#m     B     D#    E	       E7
     Oh, I surrender all of me, all of me.  (to Chorus)


OUTRO
G#m                 G		        E
     I don't wanna, no, I don't wanna,      I don't wanna hold off

                       G#m          G
You're getting to me

E                          (tacet*)
    I don't wanna hold off, you're sticky sweet.


CHORDS

Verse

  B	     Bb		   E	    D	       C#
--7-----------6------------0--------2----------4--------|
--7-----------6------------0--------3----------6--------|
--8-----------7------------1--------2----------6--------|
--9-----------8------------2--------0----------6--------|
--9-----------8------------2-------------------4--------|
--7-----------6------------0----------------------------|

Prechorus		  Bridge

G#m	      B            E7      A#m         D#
--4-----------7------------0--------6----------6--------|
--4-----------7------------0--------6----------8--------|
--4-----------8------------1--------6----------8--------|
--6-----------9------------0--------8----------8--------|
--6-----------9------------2--------8----------6--------|
--4-----------7------------0--------6-------------------|


*tacet = guitar stops playing, vocals only
Tap to rate this tab
# A B C D E F G H I J K L M N O P Q R S T U V W X Y Z