Song name
# A B C D E F G H I J K L M N O P Q R S T U V W X Y Z

Erin Mccarley - Blue Suitcase chords

Highlighted       Show chord diagrams
I've been searching for this song for a VERY long time, and it seems like no one is
to chord/tab it so I decided to! I'm not sure if this is 100% correct, but seeing as I'm not
deaf, I think this is pretty accurate. I've broken it up into sections to make it 
easier to read. If I've made any mistakes, just let me know at: allenzgurl2@yahoo.com
I'll be sure to make the corrections! :D
This is my FIRST TAB, so be nice...


Verses:
  Amaj               F#m
e--5--------3---------2---------|
B--5--------3---------2---------|
G--6--------4---------2---------|
D--7--------5---------4---------|
A--7--------5---------4---------|
E--5--------3---------2---------|

Oh, wise one, if you knew the answer
Why'd you ask the ques-tion?
Oh, wise one if you're such a someone
Why do you give no-thing to anyone?
_____________________________________

e--9--------10-----|
B--9--------10-----|
G--10-------11-----|
D--11-------12-----|
A--11-------12-----|
E--9--------10-----|

You've wiggled your way into me time and again
You love to speak your mind
But now it's fair to say I'm not open today
______________________________________________

 Amaj                 E
e--5--------3---------0---------|
B--5--------3---------0---------|
G--6--------4---------1---------|
D--7--------5---------2---------|
A--7--------5---------2---------|
E--5--------3---------0---------|

To have my heart twisted up, oh
________________________________________

D                        A
   Your blue suitcase is empty
                  E
Hey, what's your wait?
D                        A
   Your blue suitcase is empty
                  E
Hey, what's your wait?
__________________________________________

  Amaj               F#m
e--5--------3---------2---------|
B--5--------3---------2---------|
G--6--------4---------2---------|
D--7--------5---------4---------|
A--7--------5---------4---------|
E--5--------3---------2---------|

Wise man, how do you get high man?
You must be self-absorbing
Oh, wise man save me from your high man
I came for another of your stuck up drug
_________________________________________

e--9--------10-----|
B--9--------10-----|
G--10-------11-----|
D--11-------12-----|
A--11-------12-----|
E--9--------10-----|

My confidence says I am worth it today
So try and change its mind
Kiss your sweet girl away, you've found your fate

__________________________________________

 Amaj                 E
e--5--------3---------0---------|
B--5--------3---------0---------|
G--6--------4---------1---------|
D--7--------5---------2---------|
A--7--------5---------2---------|
E--5--------3---------0---------|

Now you will know what lonely pays

__________________________________________

D                        A
   Your blue suitcase is empty
                  E
Hey, what's your wait?
D                        A
   Your blue suitcase is empty
                  E
Hey, what's your wait?

__________________________________________

  Amaj               F#m
e--5--------3---------2---------|
B--5--------3---------2---------|
G--6--------4---------2---------|
D--7--------5---------4---------|
A--7--------5---------4---------|
E--5--------3---------2---------|

Na, na, na, na, na, na
Na, na, na, na, na, na
Na, na, na, na, na, na
Na, na, na, na, na, na
__________________________________________

        D
Tell me how does it feel
   A              E
To be so high above the clouds?
            D
So tell me how does it feel
   A              E
To be so high above the clouds?
            D
And tell me how will it feel
     A                       E
When no one cares that you're not around?
__________________________________________

D                        A
   Your blue suitcase is empty
                  E
Hey, what's your wait?
D                        A
   Your blue suitcase is empty
                  E
Hey, what's your wait?

____________________________________________

D                        A
  Your blue suitcase is empty
            E
What's your wait?
  D                      A
Oh, your blue suitcase is empty
            E
What's your wait?

(repeat CHORUS chords till song fades out)
Tell me how does it feel
Tell me how does it feel
Tap to rate this tab
 
# A B C D E F G H I J K L M N O P Q R S T U V W X Y Z