Song name
# A B C D E F G H I J K L M N O P Q R S T U V W X Y Z

Erin Mccarley - Hello Goodbye tab

Artist: Erin McCarley
Song: Hello/Goodbye
Album: Love, Save the Empty
Tuning: Standard

Intro

e |---------------------|
B |---------------------|
G |---------------------|
D |--8----7-------------|
A |---------------------| 	
E |---------------------|

Or

e |--x-----x--------------|
B |--x-----x--------------|
G |--x-----x--------------|
D |--8-----7--------------|
A |--8-----7--------------| 	
E |--6-----5--------------|


Verse 1

e |---------------------|
B |---------------------|
G |---------------------|
D |--8----7-------------|
A |---------------------| 	
E |---------------------|

Or

e |--x-----x--------------|
B |--x-----x--------------|
G |--x-----x--------------|
D |--8-----7--------------|
A |--8-----7--------------| 	
E |--6-----5--------------|

Hello, goodbye, good day, goodnight
You love, you hide, why?
You spring, you fall, turned on, turned off
What's wrong, what's wrong, love?

Pre-Chorus

e |---------------------|
B |---------------------|
G |---------------------|
D |--8----7-------------|
A |---------------------| 	
E |---------------------|

You say, you don't know, you don't know
You don't know
You say, you don't know, you don't know
You don't know what's 

e |---------------------|
B |---------------------|
G |---------------------|
D |--1----4-------------|
A |---------------------| 	
E |---------------------|

...on your mind

Chorus

e |-x----x-----x---x-----|
B |-x----x-----x---x-----|
G |-6----5-----3---x-----|
D |-6----6-----3---4-----|
A |-4----4-----1---4-----| 	
E |-x----x-----x---2-----|

I'd love to hear you say anything but silence
You're unaware that I'm so tired
And I've tried to understand
Am I the only one cares here?
I can't let you, let you disappear

Verse 2

e |---------------------|
B |---------------------|
G |---------------------|
D |--8----7-------------|
A |---------------------| 	
E |---------------------|

Or

e |--x-----x--------------|
B |--x-----x--------------|
G |--x-----x--------------|
D |--8-----7--------------|
A |--8-----7--------------| 	
E |--6-----5--------------|

You seem at ease then climb your trees
You're different colors
On the edge I hope
Inside I choke, I'm falling under

Pre-Chorus 

e |---------------------|
B |---------------------|
G |---------------------|
D |--8----7-------------|
A |---------------------| 	
E |---------------------|

What am I, what am I to do?
Oh, what am I, what am I to do?
When you 

e |---------------------|
B |---------------------|
G |---------------------|
D |--1----4-------------|
A |---------------------| 	
E |---------------------|

...fly too high

Chorus (x2)

e |-x----x-----x--------|
B |-x----x-----x--------|
G |-x----x-----x--------|
D |-4----6-----8--------|
A |-4----6-----8--------| 	
E |-2----4-----6--------|

...disappear

Solo

e |-----------------------13--|
B |-9----11----14----9--------|
G |---------------------------| (x5)
D |---------------------------|
A |---------------------------| 	
E |---------------------------|


e |---------------------------------------|
B |--18--16---14---11---9---11--(x2)---9--|
G |---------------------------------------| 
D |---------------------------------------|
A |---------------------------------------| 	
E |---------------------------------------|

Chorus 

Outro

e |-x----x-----x---x-----|
B |-x----x-----x---x-----|
G |-6----5-----3---x-----|
D |-6----6-----3---4-----|
A |-4----4-----1---4-----| 	
E |-x----x-----x---2-----|

Oh, I've tried to understand
Am I the only one who cares here?
I can't let you, let you disappear 

Tap to rate this tab
 
# A B C D E F G H I J K L M N O P Q R S T U V W X Y Z