Song name
# A B C D E F G H I J K L M N O P Q R S T U V W X Y Z

Erkin Koray - Akrebin Gzleri tab

Akrebin Gozleri 
Intro:
e|----------------|-----------------|
b|----------------|-----------------|
G|----------------|-----------------|
D|----------------|-2---------------|
A|----------------|-2---------------|
E|---------0s13s0-|-0---------------|

e|----------------|-----------------|
b|----------------|-----------------|
G|----------------|-----------------|
D|-3--------------|-5---------------|
A|-3--------------|-5---------------|
E|-1--------------|-3---------------|

e|----------------|
b|----------------|
G|----------------|
D|-7--------------|
A|-7--------------|
E|-5--------------|

     (e|----------------------------|
     (b|----------------------------|
     (G|----------------------------|
[A]  (D|-2-XX-2-XX-2-XX-2-3---------|
     (A|-2-XX-2-XX-2-XX-2-3---------|
     (E|-0-XX-0-XX-0-XX-0-1---------|
TEKRAR [A] 8 Defa




Verse:
e|---------------------|---------------------|
b|---------------------|---------------------|
G|---------------------|---------------------|
D|-2-XX-2-XX-2-XX-2-XX-|-3-XX-3-XX-3-XX-3-XX-|
A|-2-XX-2-XX-2-XX-2-XX-|-3-XX-3-XX-3-XX-3-XX-|
E|-0-XX-0-XX-0-XX-0-XX-|-1-XX-1-XX-1-XX-1-XX-|
   Akrebin Gozleri herdan...

e|---------------------|---------------------|
b|---------------------|---------------------|
G|---------------------|---------------------|
D|-5-XX-5-XX-5-XX-5-XX-|-7-XX-3-XX-2-XX-2-XX-|
A|-5-XX-5-XX-5-XX-5-XX-|-7-XX-3-XX-2-XX-2-XX-|
E|-3-XX-3-XX-3-XX-3-XX-|-5-XX-1-XX-0-XX-0-XX-|

e|------------|------------|
b|------------|------------|
G|------------|------------|
D|-7-5-3-2----|-7-5-3-2----|
A|-7-5-3-2----|-7-5-3-2----|
E|-5-3-1-0----|-5-3-1-0----|

e|---------------------|---------------------|
b|---------------------|---------------------|
G|---------------------|---------------------|
D|-2-XX-2-XX-2-XX-2-XX-|-3-XX-3-XX-3-XX-3-XX-|
A|-2-XX-2-XX-2-XX-2-XX-|-3-XX-3-XX-3-XX-3-XX-|
E|-0-XX-0-XX-0-XX-0-XX-|-1-XX-1-XX-1-XX-1-XX-|
   

e|---------------------|---------------------|
b|---------------------|---------------------|
G|---------------------|---------------------|
D|-5-XX-5-XX-5-XX-5-XX-|-7-XX-7-XX-7-XX-7-XX-|
A|-5-XX-5-XX-5-XX-5-XX-|-7-XX-7-XX-7-XX-7-XX-|
E|-3-XX-3-XX-3-XX-3-XX-|-5-XX-5-XX-5-XX-5-XX-|

e|------------|------------|
b|------------|------------|
G|------------|------------|
D|10-9-5-7----|10-9-5-7----|
A|10-9-5-7----|10-9-5-7----|
E|-8-7-3-5----|-8-7-3-5----|



Chorus:
e|--------------|------------|
b|--------------|------------|
G|--------------|------------|
D|10-X-10-X-10--|-9-X-9-X-9--|
A|10-X-10-X-10--|-9-X-9-X-9--|
E|-8-X--8-X--8--|-7-X-7-X-7--|

e|--------------|------------|
b|--------------|------------|
G|--------------|------------|
D|10-X-10-X-10--|-9-X-9-X-9--|
A|10-X-10-X-10--|-9-X-9-X-9--|
E|-8-X--8-X--8--|-7-X-7-X-7--|

e|------------|------------|
b|------------|------------|
G|------------|------------|
D|-7-X-7-X-7--|-7-X-5-X-5--|
A|-7-X-7-X-7--|-7-X-5-X-5--|
E|-5-X-5-X-5--|-3-X-3-X-3--|
   Akrebin goz - leri akre -
e|------------|------------|
b|------------|------------|
G|------------|------------|
D|-3-X-3-X-3--|-3-X-3-X-3--|
A|-3-X-3-X-3--|-3-X-3-X-3--|
E|-1-X-1-X-1--|-1-X-1-X-1--|
   bin  akre 
e|------------|------------|
b|------------|------------|
G|------------|------------|
D|-3-X-3-X-3--|-5-X-5-X-5--|
A|-3-X-3-X-3--|-5-X-5-X-5--|
E|-1-X-1-X-1--|-3-X-3-X-3--|
  akrebin goz -leri  akre-
e|------------|-----------------|
b|------------|-----------------|
G|------------|-----------------|
D|-7-X-7-X-7--|-----------------|
A|-7-X-7-X-7--|-----------------|
E|-5-X-5-X-5--|-3-5-3-5-3-5-3-5-|

Tap to rate this tab
# A B C D E F G H I J K L M N O P Q R S T U V W X Y Z