Song name
# A B C D E F G H I J K L M N O P Q R S T U V W X Y Z

Ernesto De Curtis - Torna A Surriento tab

TORNA A SURRIENTO - Napolitan song by E. de Curtis

Tablature by Hernбn G. Renom - dasein79@hotmail.com - March 2004

Tuning: Standard
Key: A Major / A Minor / A Major
Time Signature: 3/4
r = rest - when placed after h (1/2 note), q (1/4 note), e (1/8 note), s...

||----------------------------------|--------------------------------|
||--10---12---9---------er---7(/10)-|--10----------------------------|
||------------9---------9-----------|------------7---------7---------|
||------------11--------11---er-----|------------9---------9---------|
||--0-------------------------------|--------------------------------|
||----------------------------------|--7-----------------------------|


|-------4----5----7----4---------|--------------------------------|
|---------------------------7----|--5---------5-------------------|
|------------7---------7---------|------------6---------6---------|
|------------6---------6---------|------------7---------7---------|
|--------------------------------|--0-----------------------------|
|--0-----------------------------|--------------------------------|


|------------1-(/5)----5---------|--8----8---------7----5---------|
|--3---------3---------6---------|------------5---------5---------|
|------------2---------7---------|------------5---------5---------|
|--0-----------------------------|------------7---------7---------|
|--------------------------------|--------------------------------|
|--------------------------------|--0-----------------------------|

             /.\
|-(5)---7(\4)-4--------------4----||--5---------qr--------qr--------|
|-------------3---------3---------||----------------------5---------|
|-------------4---------4---------||------------5---------5---------|
|-------------2-------------------||------------7---------7---------|
|---------------------------------||--0-----------------------------|
|--0------------------------------||--------------------------------|


|--------------------------------|----------------------0---------|
|----------------------5---------|-------0----1----3---------1----|
|------------5---------5---------|--2---------2---------2---------|
|------------7---------7---------|------------2---------2---------|
|--0-----------------------------|--3-----------------------------|
|--------------------------------|--------------------------------|


|--0---------0-------------------|-------0----1---------1-----------|
|----------------------1---------|--3--------------3---------3(/10)-|
|------------2---------2---------|------------2---------2-----------|
|------------2---------2---------|------------3---------3-----------|
|--0-----------------------------|--0-------------------------------|
|--------------------------------|----------------------------------|


|--------------------------------|--5----7----8----7----5----7----|
|--10--------10------------------|----------------------6---------|
|------------9---------9---------|------------5---------5---------|
|------------10--------10--------|-(3)--------7---------7---------|
|--0-----------------------------|--8----er-----------------------|
|--------------------------------|--------------------------------|

                                  rall.                /.\
|--0---------0-------------------|-------0------------------------||
|----------------------1---------|--3---------3----1----0----1----||
|------------2---------2---------|------------1---------1---------||
|------------2---------2---------|------------2---------2---------||
|--------------------------------|--------------------------------||
|--0-----------------------------|--0-----------------------------||


|--------------------------------|--5----4------------------------|
|--------------------------------|------------5----7----9----5----|
|--2-----------------------------|------------6---------6---------|
|------------2---------2---------|------------7---------7---------|
|------------4---------4---------|--4-----------------------------|
|--5-----------------------------|--------------------------------|


|--------------------------------|---------------------------------|
|--7---------7-------------------|--9(\7)-7----5----7----9----5----|
|------------7---------7---------|-------------7---------7---------|
|------------9---------9---------|-------------6---------6---------|
|--------------------------------|---------------------------------|
|--7-----------------------------|--0------------------------------|


|--------------------------------|--------------------------------|
|--7---------7-------------------|--2----3----5----2--------------|
|------------6---------6---------|------------2---------4----2----|
|------------7---------7---------|------------2---------2---------|
|--0-----------------------------|--0-----------------------------|
|--------------------------------|--------------------------------|


|--------------------------------|--------------------------------|
|--3---------3-------------------|--5----7----9----7----5----9----|
|------------4---------4---------|------------7---------7---------|
|------------4---------4---------|------------6---------6---------|
|--2-----------------------------|--------------------------------|
|--------------------------------|--0-----------------------------|


|--------------------------------|--5----4------------------------|
|--2-----------------------------|------------5----7----9----5----|
|------------2---------2---------|------------6---------6---------|
|------------2---------2---------|------------7---------7---------|
|--0-----------------------------|--4-----------------------------|
|--------------------------------|--------------------------------|


|--------------------------------|--7----5----4----5----7----4----|
|--7---------7-------------------|--------------------------------|
|------------7---------7---------|------------7---------7---------|
|------------9---------9---------|------------6---------6---------|
|--------------------------------|--------------------------------|
|--7-----------------------------|--0-----------------------------|


|--5---------5-------------------|--5----7----8----7----5----7----|
|----------------------6---------|----------------------6---------|
|------------5---------5---------|------------5---------5---------|
|------------7---------7---------|-(3)--------7---------7---------|
|--8-----------------------------|--8----er-----------------------|
|--------------------------------|--------------------------------|

                                                       /.\
|--0---------0-------------------|-------0------------------------||
|----------------------1---------|--3---------3----1----0----1----||
|------------2---------2---------|------------1---------1---------||
|------------2---------2---------|------------2---------2---------||
|--------------------------------|--------------------------------||
|--0-----------------------------|--0-----------------------------||

                      D. C. al Fin
||--------------------------------||----------------------------------|
||--------------------------------||--10---12---9---------er---7(/10)-|
||--2-----------------------------||------------9---------9-----------|
||------------2---------2---------||------------11--------11---er-----|
||------------4---------4---------||--0-------------------------------|
||--5-----------------------------||----------------------------------|


|--------------------------------|-------4----5----7----4---------|
|--10----------------------------|---------------------------7----|
|------------7---------7---------|------------7---------7---------|
|------------9---------9---------|------------6---------6---------|
|--------------------------------|--------------------------------|
|--7-----------------------------|--0-----------------------------|


|--------------------------------|------------1-(/5)----5---------|
|--5---------5-------------------|--3---------3---------6---------|
|------------6---------6---------|------------2---------7---------|
|------------7---------7---------|--0-----------------------------|
|--0-----------------------------|--------------------------------|
|--------------------------------|--------------------------------|

                                              /.\
|--8--------------7----5---------|-(5)---7(\4)-4--------------4----|
|------------5---------5---------|-------------3---------3---------|
|------------5---------5---------|-------------4---------4---------|
|------------7---------7---------|-------------2-------------------|
|--------------------------------|---------------------------------|
|--0-----------------------------|--0------------------------------|

                       /.\
|--5----er---17--------qr--------||
|------------13------------------||
|------------14------------------||
|--------------------------------||
|--0---------0---------qr--------||
|--------------------------------||
                       \:/    Fin

Tap to rate this tab
# A B C D E F G H I J K L M N O P Q R S T U V W X Y Z