Song name
# A B C D E F G H I J K L M N O P Q R S T U V W X Y Z

Ernesto Lecuona - Malaguena tab

[Malaguena Traditional]


[Read First]************************************************


When a chord in the tab has a capital letter 'R' underneath
it, it means to strum/pluck it slowly to generate a "gentle
rake." It creates a slow gradient from the chord's root note
and up (when raking downward).

   .  .  .   .  .  .                1  .       .  .   .       .  .
e|-0-------|-0-------|              e|------0-------|------0-------|
B|-0-------|-1-------|              B|-----0--------|-----1--------|
G|-1-------|-2-------|              G|----1---------|----2---------|
D|-2-------|-2-------|  -same as->  D|---2----------|---2----------|
A|-2-------|-0-------|              A|--2-----------|--0-----------|
E|-0-------|-0-------|              E|-0------------|-0------------|
   R         R


There are symbols you must know for this specific tab. The
periods '.' above the tablature will measure the beats per
measure, in this case 3/4. There are three periods above each
measure and will be scaled to when needed. Also in front of
every line of tabs is a measure number which marks the
current measure. The example below shows two measures,
starting at measure 68, with a scaled beats per measure to
compensate for the hammer-on and pull-off in the tab.

68 .  .  .   .      .  .
e|---------|-------------|
B|-1--1--1-|-1h3p1--0----|
G|---------|-----------2-|
D|---------|-------------|
A|-0-------|-0-----------|
E|---------|-------------|



(Meas. 1) Often associated with flamenco guitar music, there
is a thing called "rasgueado," which is a guitar finger
strumming technique. It is recommended you first look at
visuals and tutorials of rasgueado so you know what to expect.
In the example below, the ^ and v symbols show which direction
to strum on the guitar and the letters "p," "i," "m," and "a"
correspond to the right-hand's thumb, index, middle, and ring
fingers respectively. This would verbally translate to "thumb
up, ring down, middle down, index down."

1  .  .__3___  .   .  .__3___  .
e|-0--0--0--0--0-|-0--0--0--0--0-|
B|-0--0--0--0--0-|-0--0--0--0--0-|
G|-1--1--1--1--1-|-1--1--1--1--1-|
D|-2--2--2--2--2-|-2--2--2--2--2-|
A|-2-------------|-2-------------|
E|-0-------------|-0-------------|
   R  v  ^  ^  ^   R  v  ^  ^  ^
      p  a  m  i      p  a  m  i

(Meas. 80) The picking technique for this part in the song is
called tremolo picking of the high E string, You can find
tutorials for tremolo picking from many online sources.
(The '3' above the tab symbolizes a "triplet" in the measure)

80 ._3__ ._3__ ._3__   ._3__ ._3__ ._3__
e|---0-0---0-0---0-0-|---0-0---0-0---0-0-|
B|-------------0-----|-------------0-----|
G|-------1-----------|-------1-----------|
D|-2-----------------|-2-----------------|
A|-------------------|-------------------|
E|-------------------|-------------------|


Hope this prevents any confusion in reading and comprehending
the tab.


************************************************************



[Standard Tuning, medium waltz]




1  .  .__3___  .   .  .__3___  .   .  .__3___  .   .  .  .
e|-0--0--0--0--0-|-0--0--0--0--0-|-0--0--0--0--0-|-0-------|
B|-0--0--0--0--0-|-0--0--0--0--0-|-0--0--0--0--0-|-0-------|
G|-1--1--1--1--1-|-1--1--1--1--1-|-1--1--1--1--1-|-1-------|
D|-2--2--2--2--2-|-2--2--2--2--2-|-2--2--2--2--2-|-2-------|
A|-2-------------|-2-------------|-2-------------|-2-------|
E|-0-------------|-0-------------|-0-------------|-0-------|
   R  v  ^  ^  ^   R  v  ^  ^  ^   R  v  ^  ^  ^   R
      p  a  m  i      p  a  m  i      p  a  m  i


2  .     .  .   .  .  .   .  .  .   .      .  .   .  .  .   .  .  .   .  .    .   .    .  .
e|------------|---------|---------|-------------|---------|---------|------0----|---0-------|
B|----0--1--3-|-3--1--0-|-1-----0-|-1h3p1--0----|-0-------|---------|-----0-----|--0--------|
G|---1--------|---------|----2----|-----------2-|----2--0-|-2--0----|----1------|-1---------|
D|--2---------|---------|---------|-------------|---------|-------3-|---------2-|------2-(2)| x2
A|------------|---------|-0-------|-0-----------|---------|---------|-----------|-----------|
E|-0----------|-0-------|---------|-------------|-3-------|-1-------|-0---------|-----------|


10 .   .   .     .   .   .     .   .   .     .   .   .
e|---0---0---0-|---0---0---0-|---0---0---0-|---0---0---0-|
B|---------0---|---------0---|-----1---0---|-------------|
G|-----1-------|-----1-------|-2-----------|-2---0-------|
D|-2-----------|-2-----------|-------------|---------3---| x2
A|-------------|-------------|-------------|-------------|
E|-------------|-------------|-------------|-------------|


14 .   .   .     .   .   .     .   .   .     .   .   .
e|---0---0---0-|---0---0---0-|---0---0---0-|---0---0---0-|
B|---------0---|-3---1---0---|-1-------0---|-1---0-------|
G|-----1-------|-------------|-----2-------|---------2---|
D|-2-----------|-------------|-------------|-------------|
A|-------------|-------------|-------------|-------------|
E|-------------|-------------|-------------|-------------|


18 .   .   .     .   .   .     .  .  .   .  .  .
e|---0---0---0-|---0---0---0-|---------|-0-------|
B|-0-----------|-------------|-------0-|-0-------|
G|-----2----0--|-2---0-------|----1----|-1-------|
D|-------------|---------3---|-2-------|-2-------|
A|-------------|-------------|---------|-2-------|
E|-------------|-------------|---------|-0-------|
                                         R

22 .     .  .   .  .  .   .  .  .   .  .  .   .  .  .   .  .  .   .  .  .   .  .  .
e|----0--0--0-|-0--0----|-1--0----|---------|---------|---------|---------|---------|
B|---0--------|-------3-|-------3-|-1-------|-1--1--1-|-1--1--0-|-3--1--0-|---------|
G|--1---------|---------|---------|-------0-|---------|---------|---------|-2-------|
D|------------|---------|---------|----2----|---------|-2-------|---------|-------3-|
A|------------|---------|---------|-3-------|-3-------|---------|-3-------|----3----|
E|-0----------|-0-------|-0-------|---------|---------|---------|---------|-1-------|


30 .  .  .   .  .  .   .  .  .   .  .  .   .  .  .   .  .  .   .  .  .__4___   .  .  .
e|---------|----0----|-1--0----|---------|-------0-|-1--3--1-|-1-----0h1h3p1-|-0-------|
B|----0--1-|-3-----3-|-------3-|-1-------|-1--3----|---------|-0-------------|-0-------|
G|-2-------|---------|---------|-------0-|---------|---------|-2-------------|-1-------|
D|---------|-3-------|---------|----2----|---------|-0-------|-0-------------|-2-------|
A|---------|---------|---------|-3-------|-3-------|---------|---------------|-2-------|
E|-1-------|---------|-3-------|---------|---------|---------|---------------|-0-------|
                                                                               R

38 .   .   .     .   .   .     .   .   .     .   .   .
e|---0---0---0-|---0---0---0-|---0---0---0-|---0---0---0-|
B|---0---0---0-|---0---0---0-|---1---1---1-|---1---0---0-|
G|-------------|-------------|-------------|-------------|
D|-------------|-------------|-------------|-------------|
A|---------2---|---------2---|-0---3---2---|-0-----------|
E|-0---4-------|-0---4-------|-------------|-----3---1---|


42 .   .   .     .   .   .     .   .   .     .   .   .
e|---0---0---0-|---0---0---0-|---0---0---0-|---0---0---0-|
B|---0---0---0-|---0---0---0-|---1---1---1-|---1---1---1-|
G|-------------|-------------|-------------|-------------|
D|-------------|-------------|-------------|-0---2---3---|
A|---------2---|---------2---|-0---2---3---|-------------|
E|-0---4-------|-0---4-------|-------------|-------------|


46 ._3__ ._3__ ._3__   ._3__ ._3__ ._3__   ._3__ ._3__ ._3__   ._3__ ._3__ ._3__
e|---0-----0-----0---|---0-----0-----0---|---0-----0-----0---|---0-----0-----0---|
B|-----0-----0-0---0-|-----0-----0-0---0-|-----1-1---1-0---0-|-----0-----0-----0-|
G|-------1-----------|-------1-----------|-2-----------------|-2-----0-----------|
D|-2-----------------|-2-----------------|-------------------|-------------3-----| x2
A|-------------------|-------------------|-------------------|-------------------|
E|-------------------|-------------------|-------------------|-------------------|


50 .  .  .   .  .  . 
e|---------|-0-----0-|
B|-------0-|-0-------|
G|----1----|-1-------|
D|-2-------|-2-------|
A|---------|-2-------|
E|---------|-0-------|


52 .     .  .   .  .  .   .     .  .   .3_  .  .
e|----0--0----|-1--0----|------------|---0-------|
B|---1------3-|-------1-|----3--3--1-|--0---3--0-|
G|--2---------|---------|---0--------|-0---------|
D|------------|---------|--0---------|-----------|
A|-0----------|-0-------|------------|-----------|
E|------------|---------|-3----------|-----------|


56 .     .  .   .  .  .   .  .  .   .     .  .
e|------------|---------|---------|----------0-|
B|----1--1--0-|-3--1----|---------|----0-------|
G|---2--------|-2-----2-|-1--1--2-|---1--------|
D|--3---------|-3-------|-2-------|--2---------|
A|------------|---------|-2-------|------------|
E|-1----------|---------|-0-------|-0----------|


60 .  .  .   .  .  .   .  .  .   .  .  .   .  .  .   .  .  .   .  .  .   .  .  .
e|-5--5--4-|-3-----0-|-3--3--2-|-1--0----|-1--1--0-|---------|-0--0----|---------|
B|---------|----6----|---------|-------3-|---------|-3--1--3-|-------4-|-3--1--0-|
G|---------|---------|---------|---------|---------|---------|---------|---------|
D|---------|---------|---------|---------|---------|---------|---------|---------|
A|-0-------|-0-------|---------|---------|---------|---------|---------|---------|
E|---------|---------|-3-------|-3-------|-1-------|-1-------|-0-------|-0-------|


68 .  .  .   .      .  .   .  .  .   .      .  .   .  .  .   .  .  .
e|---------|-------------|---------|-------------|---------|---------|
B|-1--1--1-|-1h3p1--0----|-0--0--0-|-0h1p0-------|----0--1-|-1--3--4-|
G|---------|-----------2-|---------|--------2--0-|-2-------|---------|
D|---------|-------------|---------|-------------|---------|---------|
A|-0-------|-0-----------|---------|-------------|---------|---------|
E|---------|-------------|-3-------|-3-----------|-1-------|---------|


74 .  .__3___  .   .__3___  .  .
e|-0--0--0--0--0-|-0--0--0--0----|
B|----0--0--0--0-|-0--0--0--0----|
G|----1--1--1--1-|-1--1--1--1----|
D|----2--2--2--2-|-2--2--2--2----|
A|---------------|---------------|
E|-0-------------|---------------|
      v  ^  ^  ^   v  ^  ^  ^
      p  a  m  i   p  a  m  i
76 .   .   .     .   .   .     .   .   .     .   .   .
e|---0---0---0-|---0---0---0-|---0---0---0-|---0---0---0-|
B|---------0---|---------0---|-----1---0---|-------------|
G|-----1-------|-----1-------|-2-----------|-2---0-------|
D|-2-----------|-2-----------|-------------|---------3---|
A|-------------|-------------|-------------|-------------|
E|-------------|-------------|-------------|-------------|


80 ._3__ ._3__ ._3__   ._3__ ._3__ ._3__   ._3__ ._3__ ._3__   ._3__ ._3__ ._3__
e|---0-0---0-0---0-0-|---0-0---0-0---0-0-|---0-0---0-0---0-0-|---0-0---0-0---0-0-|
B|-------------0-----|-------------0-----|-------1-----0-----|-------------------|
G|-------1-----------|-------1-----------|-2-----------------|-2-----0-----------|
D|-2-----------------|-2-----------------|-------------------|-------------3-----|
A|-------------------|-------------------|-------------------|-------------------|
E|-------------------|-------------------|-------------------|-------------------|


84 ._3__ ._3__ ._3__   ._3__ ._3__ ._3__   ._3__ ._3__ ._3__   ._3__ ._3__ ._3__
e|---0-0---0-0---0-0-|---0-0---0-0---0-0-|---0-0---0-0---0-0-|---0-0---0-0---0-0-|
B|-------------0-----|-3-----1-----0-----|-1-----------0-----|-1-----0-----------|
G|-------1-----------|-------------------|-------2-----------|-------------2-----|
D|-2-----------------|-------------------|-------------------|-------------------|
A|-------------------|-------------------|-------------------|-------------------|
E|-------------------|-------------------|-------------------|-------------------|


88 ._3__ ._3__ ._3__   ._3__ ._3__ ._3__   .  .__3___  .   .  .__3___  .
e|---0-0---0-0---0-0-|---0-0---0-0---0-0-|----0--0--0--0-|-0--0--0--0--0-|
B|-0-----------------|-------------------|----0--0--0--0-|-0--0--0--0--0-|
G|-------2-----0-----|-2-----0-----3-----|----1--1--1--1-|-2--2--2--2--2-|
D|-------------------|-------------------|-2--2--2--2--2-|-3--3--3--3--3-|
A|-------------------|-------------------|---------------|-3-------------|
E|-------------------|-------------------|---------------|-0-------------|
                                              v  ^  ^  ^   ^  v  ^  ^  ^
                                              p  a  m  i      p  a  m  i
92 .  .__3___  .   .  .__3___  .   .  .__3___  .   .  .__3___  . 
e|-0--0--0--0--0-|-0--0--0--0--0-|-0--0--0--0--0-|-0--0--0--0--0-|
B|-0--0--0--0--0-|-0--0--0--0--0-|-0--0--0--0--0-|-0--0--0--0--0-|
G|-1--1--1--1--1-|-2--2--2--2--2-|-0--0--0--0--0-|-2--2--2--2--2-|
D|-2--2--2--2--2-|-3--3--3--3--3-|-0--0--0--0--0-|-3--3--3--3--3-|
A|-2-------------|-3-------------|-2-------------|-3-------------|
E|-0-------------|-0-------------|-3-------------|-0-------------|
   ^  v  ^  ^  ^   ^  v  ^  ^  ^   ^  v  ^  ^  ^   ^  v  ^  ^  ^
      p  a  m  i      p  a  m  i      p  a  m  i      p  a  m  i

96 .  .  .   .  .  .   .  .  .
e|-0-------|-12------|-0-------|
B|-0-------|-9-------|-0-------|
G|-1-------|-9-------|-1-------|
D|-2-------|-9-------|-2-------|
A|-2-------|---------|-2-------|
E|-0-------|---------|-0-------|
   ^         ^         R
Tap to rate this tab
 
# A B C D E F G H I J K L M N O P Q R S T U V W X Y Z