Song name
# A B C D E F G H I J K L M N O P Q R S T U V W X Y Z

Ernie Halter - Love Look At Me Now tab

------------------------------------------------------------
       "Love Look at me Now" - Ernie Halter
             myspace.com/erniehalter
------------------------------------------------------------
Tabbed by: Justin RiRaY
Email: Pakman7JR@hotmail.com       AIM: BeatPwner
www.myspace.com/RiRaY  www.myspace.com/NeverYourStar

This tab is for the loevely Mylene Fojas Riray =D

Tuning: half-step down


     INTRO/VERSE
eb|-----------------|
Bb|-----------------|
Gb|--4-----0--4--4--|
Db|--4--6--0--4--5--|
Ab|--2--6--2--2--2--|
Eb|-----4--3--------|

     Pre-CHORUS 
eb|---------------------|
Bb|---------------------|
Gb|--6-----4------6--9--|
Db|--6--4--4--6---6--9--|
Ab|--4--4--2--6---4--7--|
Eb|-----2-----4---------|
     CHORUS
eb|--------------|
Bb|--------------|
Gb|--6-----4-----|
Db|--6--4--4--6--|
Ab|--4--4--2--6--|
Eb|-----2-----4--|
 
     BRIDGE
eb|-----------------------------|
Bb|-----------------------------|
Gb|--0--9--4-4-4-4--6-----6--9--|
Db|--0--9--4-5-4-5--6--4--6--9--|
Ab|--2--7--2-2-2-2--4--4--4--7--|
Eb|--3-----------------2--------|

     OUTRO
eb|---------------------2~-|
Bb|---------------------2~-|
Gb|--4-----0----4-0-4-0-4~-|
Db|--4--6--0---4-4------4~-|
Ab|--2--6--2--2---------2~-|
Eb|-----4--3------------2~-|
Tap to rate this tab
# A B C D E F G H I J K L M N O P Q R S T U V W X Y Z