Song name
# A B C D E F G H I J K L M N O P Q R S T U V W X Y Z

Ernies - Here And Now tab

intro
e |X3---------------------|play last time-------|
B |------------------------|--------------------|
G |------------------------|--------------------|
D |------------------------|--------------------|
A |--7--5--5--5--5h7---|--7--5--8--5h7----------|
E |00 00 00 00 00------|00 00 00 00-------------|


verse
"from down on the sidewalk"
e |----------------------------|
B |----------------------------|
G |----------------------------|
D |-------4h5p4h5p-4-----------|
A |---3-5--------- 5p 3--------|
E |3h5-------------------------|

prechorus
"milky way galaxy"
e |X3--------------------|
B |----------------------|
G |----------------------|
D |----------------------|
A |--7---5--5--5--5h7----|
E |00-00-00-00-00--------|

chorus
"here and now"
e |--------------------|
B |--------------------|
G |--------------------|
D |--7--5--5--5--5h7---|
A |00 00 00 00 00------|
E |--------------------|

solo:
e |-----------------------------------------|
B |-----------------------------------------|
G |-----------------------------------------|
D |6h7-7---4h5p4h5p4-----------4h5p4h5p4----|
A |-----3-5---------5-3-----3-5---------5-3-|
E |----------------------3-5----------------|

outro:
e |---------------|
B |---------------|
G |---------------|
D |55-7-55-55-557-|
A |55-7-55-55-557-|
E |33-5-33-33-335-|

SONG ORDER
intro x2
verse x8
prechorus x4
chorus x8
verse x8
prechorus x4
chorus x8
solo x2
(no guitar)
prechorus x4
intro x2
(pasue)
chorus x8
outro x4
Tap to rate this tab
 
# A B C D E F G H I J K L M N O P Q R S T U V W X Y Z