Song name
# A B C D E F G H I J K L M N O P Q R S T U V W X Y Z

Eros Ramazzotti - Un Altra Te tab

Steve sl028@otenet.gr

OK HERE'S THE SOLO OF THAT GREAT ARTIST

Eb                    Bb      Fm                 Eb    Bb               Fm
-----------------------------------------------------16p15-16s18-----------|
-------18b20-20r18p16-18-18b20------------16-18-18b20-----------13s15------|
15-15-------------------------17-------15----------------------------15s17-|
---------------------------------15s17-------------------------------------|
---------------------------------------------------------------------------|
---------------------------------------------------------------------------|

                        Eb          Bb        Fm                Eb
--13p11-15p11-------------------------------------------------------------|
-------------15-11-13---------------------------------------16------------|
---------------------13-15---------------15------13----15b17--17r15-------|
------------------------------13-12p13h12---12s10-------------------------|
--------------------------------------------------------------------------|
--------------------------------------------------------------------------|
     Bb        Fm
---11---------------------------------------------------------------------|
-11--15-11-----13---------------------------------------------------------|
----------10s12-----------------------------------------------------------|
--------------------------------------------------------------------------|
--------------------------------------------------------------------------|
--------------------------------------------------------------------------|
Tap to rate this tab
 
# A B C D E F G H I J K L M N O P Q R S T U V W X Y Z