Song name
# A B C D E F G H I J K L M N O P Q R S T U V W X Y Z

Eroticide - Cyanide Orgasm tab

Artist: EROTICIDE

Song:  Cyanide Orgasm

Link:    http://www.myspace.com/erot

Tabbed by:
Chris Johnson-Harbers

Bunnys_r_cool@hotmail.com

NOTE****
Not too sure about the chorus and such but its something along those lines.


INTRO

E|-----------------------------------------------------|
B|-----------------------------------------------------|
G|-----------------------------------------------------|
D|--0---------------0--------------0--------------0----| 
A|--0---------------0--------------0--------------0----|
D|--0---------------0--------------0--------------0----|




2ND INTRO/CHORUS

E|-----------------------------------------------------|
B|-----------------------------------------------------|
G|-----------------------------------------------------|
D|---0----2-3---5--------------------------------------| 
A|---0----2-3---5--------------------------------------|
D|---0----2-3---5--------------------------------------|




VERSE


E|-----------------------------------------------------|
B|-----------------------------------------------------|
G|-----------------------------------------------------|
D|--------------------------3--------------------------| 
A|-000000---000000----------3--------------------------|
D|-000000---000000-----2--4----------------------------|

My first tab, not the best but its close
Tap to rate this tab
# A B C D E F G H I J K L M N O P Q R S T U V W X Y Z