Song name
# A B C D E F G H I J K L M N O P Q R S T U V W X Y Z

Erra - Hybrid Earth tab

Tabbed by: Theonelink


Tuning: A# F A# D# G C

|-------------------------------------------------------------------------|
|-------------------------------------------------------------------------|
|--------------------------------------------------------------0----------|
|------------------5h7p5p0----------------------7-7----------4-------0----|
|---------5-5-6-6-----------5h6p5----------5--------5-5----------3/6---0--|
|-5-5-8-8-------------------------8--4-4-4---4----------4-4---------------|
  . . . . . . . .                    . .        . . . . . .

|----------------------------------------------------|
|----------------------------------------------------|
|------------------3---------------------------------|
|----------------7---7-----0---------------------10--|
|---------/5--3------------------------9p0-----9-----|
|-/4--1------------------0---0-----0h7-----0h7-------|
                 .       .
|-----------------------------------------------------|
|-----------------------------------------------------|
|-----------------------------------------------------|
|---------------4h5p4p0-------------------------------|
|--------/5--3----------3h5--------------------6-6-6--|
|-/4--1----------------------0-0-----0-0-1b----4-4-4--|
                             . .     . .       . . .

|--------------7*-------------------------------------------------------|
|---------------7*------------------------------------------------------|
|----------------7*-----------------------------------------------------|
|-----------------7*--------0-------------------------------------------|
|-----------0---------0---6---6----------------------13----------12-----|
|-0-0---1b--0---------0-------4-----0---0-0--0--0h12----12--0h10----10--|
  . .       .         .       .         .    .

|--------------5*-------------------------------------------------|
|---------------5*------------------------------------------------|
|----------------5*----------5*-----------------------------------|
|-----------------5*------5*------5*-----0------------------------|
|-----------0---------0--------5*-----0--6------------17----17br--|
|-0-0---1b--0---------0---------------0-----0-0--0h13----13-------|
  . .       .         .               .     . .          .

|------7*--------------------------------------|
|-------7*-------------------------------------|
|--------7*------------------------------------|
|---------7*-----------------15------------19--|
|------------------------13------------17------|
|-0-0---------0-0--0h12----------0h16----------|
  . .         . .        .             .   

|----------------------------------------------|
|--11------------------------------------------|
|------14------14----8h11p8----------5*--5*----|
|----------16---------------10p7h10--------5*--|
|----------------------------------------------|
|----------------------------------------------|

|----------------------------------------------------|
|----------------------------------------------------|
|----------------------------------------------------|
|----------------------------------------0-----0-----|
|------------------------------------0---6--6--6--6--|
|-0-1-0-1---0-1-0-1--0-1b--0-0--0-0--0------4-----4--|
                           .    .    .      .     .

|------7*--------------------------------------|
|-------7*-------------------------------------|
|--------7*------------------------------------|
|---------7*-----------------15------------19--|
|------------------------13------------17------|
|-0-0---------0-0--0h12----------0h16----------|
  . .         . .        .             .   

|---------------------------------------------------------7*-----|
|--11------------------------------------------------------7*----|
|------14------14-----8h11p8--------------------------------7*---|
|----------16----------------10p7h10-7p4-4h7p4---4h7---------7*--|
|----------------------------------------------6------0-0--------|
|-----------------------------------------------------0-0--------|
                                                      . .

|---------------------------------------------------------------|
|---------------------------------------------------------------|
|----------------------------------------------------0----------|
|-----------------0-------------------------0------4---4---4----|
|-0---0-0---0--0--0-0-0-----0---0-0---0--0--0-0-0--------6---6--|
|-1---1-1---1--1----1-1-----1---1-1---1--1----1-1---------------|
  .   . .   .  .    . .     .   . .   .  .    . .        .      

|-----------------------------------------------------------|
|-----------------------------------------------------------|
|------------------------------------------------0----------|
|----------------0-0--------------------0-0----4---4---4----|
|-0---0-0-0---0--6-6-0---0--0-0-0---0---6-6-0--------6---6--|
|-0---0-0-0---0------0---0--0-0-0---0-------0---------------|   
  .   . . .   .  . . .   .  . . .   .   . . .        . 

|----------------------------------------------------------|
|----------------------------------------------------------|
|----------------------------------0-----------------------|
|----------------0-0-----7-5-8-5-4-----0-------------------|
|-0---0-0-0---0--6-6-0---------------6---------17----17br--|
|-0---0-0-0---0------0--------------------0h13----13-------|   
  .   . . .   .  . . .   . . . . .   . .          .

|--------------------------------------------------------------------|
|--------------------------------------------------------------------|
|--------------------------------------------------------------------|
|---------------15------7*-0-----------------15----------------------|
|------------13---------------------------13------------5-5-----3-3--|
|-0--0---0-0--------0-0------0-0--0---0-0-------0-0-4-4-----1-1------|   
         . . .      . .      .        . . .     . . . . . . . . . .

|--------------------------------------------------------------------|
|-8---------------11--------------4----------------------------------|
|---11----11---------14----14-------7b-------------------------------|
|------13---------------16-------------------------------------------|
|-----------------------------------------0-0-0--0-0-0-0--0-0--0-0-0-|
|-----------------------------------------1-1-1--1-1-1-1--1-1--1-1-1-|
                                          . . .  . . . .  . .  . . .

|--------0-----------------------------------------------------|
|--------0-----------------------------------------6---8--8/11-|
|------------3---------------------------------3---------------|
|--4/5/4---7---7-------------0-------0-----5/7---7---8---------|
|--4/5/4---------5--3------6-------6----3----------------------|
|----------------5--3--3/5-----7h8------3----------------------|      
           .     .  .      .       .    .        .   .

|----------10-------13----------------------------------------13-------|
|----11-------11----------------11----11--------------11---------11----|
|-12----12-------12-------12/14----14-----------10-------10---------10-|
|----------------------------------------15--13----13-------13---------|
|----------------------------------------------------------------------|
|----------------------------------------------------------------------|
        .        .                                 .        .

|-------10-----------6-------6-------6-------6-------6-----|
|-11/13----13-----10------10------10------10------10---10--|
|--------------10------10------10------10------10----------|
|----------------------------------------------------------|
|----------------------------------------------------------|
|----------------------------------------------------------|

|----------10-------13----------------------------------------13-------|
|----11-------11----------------11----11--------------11---------11----|
|-12----12-------12-------12/14----14-----------10-------10---------10-|
|----------------------------------------15--13----13-------13---------|
|----------------------------------------------------------------------|
|----------------------------------------------------------------------|
        .        .                                 .        .

|-------10-----------6-------6-------6-------6-------6-----|
|-11/13----13-----10------10------10------10------10---10--|
|--------------10------10------10------10------10----------|
|----------------------------------------------------------|
|----------------------------------------------------------|
|----------------------------------------------------------|


|--------------------------------|
|--------------------------------|
|---------0-------------------0--|
|-----1-----1---------1-----1----|
|---5---5-----5-----5-----5------|
|-0---------------1-----4--------|
    .   .           .   . .          

|------------------------------------------------------------|
|------------------------------------------------------------|
|------------------------------------------------------------|
|---------------15------7*-0-----------------15--------------|
|------------13---------------------------13------------3-3--|
|-0--0---0-0--------0-0------0-0--0---0-0-------0-0-1-1------|   
         . . .      . .      .        . . .     . . . . . . 

|------------------------------------------------------------|
|------------------------------------------------------------|
|------------------------------------------------------------|
|---------------15------7*-0-----------------15--------------|
|------------13---------------------------13------------5-5--|
|-0--0---0-0--------0-0------0-0--0---0-0-------0-0-4-4------|   
         . . .      . .      .        . . .     . . . . . . 

|------------------------------------------------------------|
|------------------------------------------------------------|
|------------------------------------------------------------|
|---------------15------7*-0-----------------15--------------|
|------------13---------------------------13------------3-3--|
|-0--0---0-0--------0-0------0-0--0---0-0-------0-0-1-1------|   
         . . .      . .      .        . . .     . . . . . . 

|---------------------------------------------|
|---------------------------------------------|
|---------------------------------------------|
|---------------------------------------------|
|-00--0--0--000--0--000--0--00-000-00-000-00--|
|-00--0--0--000--0--000--0--00-000-00-000-00--|
  ..  .  .  ...  .  ...  .  .. ... .. ... ..

|-------------------------------------------|
|-------------------------------------------|
|-------------------------------------------|
|------------------------------7*-0---------|
|-00--0--0--000--0--000-0---------------5---|
|-00--0--0--000--0--000-0--0-0------0h1---1-|
  ..  .  .  ...  .  ... .  . .

|---------------------------------------------|---------------------------|
|---------------------------------------------|---------------------------|
|---------------------------------------------|---------------------------|
|---------------------------------------------|---------------------------|
|-00--0--0--000--0--000--0--00-000-00-000-00--|-00--0--0--000--0--000--0--|
|-00--0--0--000--0--000--0--00-000-00-000-00--|-00--0--0--000--0--000--0--|
  ..  .  .  ...  .  ...  .  .. ... .. ... ..    ..  .  .  ...  .  ...  .

|-----------------------------------------------------------------------|
|-----------------------------------------------------------------------|
|-----------------------------------------------------------------------|
|-----7*-0-----------------------------------------17----17-------------|
|----------------------------17--------3------------------------15------|
|-0-0------0-0-12-0---0-0h13----13---1---1--0---13----13----13-----13-0-|
  . .      . .        .                         .     .   

|-----------------------------------------------------|
|-----------------------------------------------------|
|------------------------------------------0----------|
|-----------0--------------------0-------4---4---4----|
|-0---0--0--0-0-0---0--0-0--0--0-0-0-0---------6---6--|
|-1---1--1----1-1---1--1-1--1--1---1-1----------------|
  .   .  .    . .   .  . .  .  .   . .         .

|-----------------------------------------|
|-----------------------------------------|
|-----------------------------------------|
|-1--1-1--1-1--1-1-1--1-1--1-1--1--1-1--1-|
|-1--1-1--1-1--1-1-1--1-1--1-1--1--1-1--1-|
|-1--1-1--1-1--1-1-1--1-1--1-1--1--1-1--1-|   
  .  . .  . .  . . .  . .  . .  .  . .  .

|------------------------------------------------------------|
|------------------------------------------------------------|
|-2h3-------5-7--------5---------2h3-------5--7--5--8-7-5----|
|-----3h5--------5-7-8---8-7-5-------3h5------------------8--|
|------------------------------------------------------------|
|------------------------------------------------------------|

|--------------------------------------------------------10--|
|--------------------------------------8-11---8---11-8-6-----|
|-2h3-------5-7--------5---------8-7-8-----------------------|
|-----3h5--------5-7-8---8-7-5-------------------------------|
|------------------------------------------------------------|
|------------------------------------------------------------|
    

|----------10-------13----------------------------------------13-------|
|----11-------11----------------11----11--------------11---------11----|
|-12----12-------12-------12/14----14-----------10-------10---------10-|
|----------------------------------------15--13----13-------13---------|
|----------------------------------------------------------------------|
|----------------------------------------------------------------------|
        .        .                                 .        .

|-------10-----------6-------6-------6-------6-------6-----|
|-11/13----13-----10------10------10------10------10---10--|
|--------------10------10------10------10------10----------|
|----------------------------------------------------------|
|----------------------------------------------------------|
|----------------------------------------------------------|

|----------10-------13----------------------------------------13-------|
|----11-------11----------------11----11--------------11---------11----|
|-12----12-------12-------12/14----14-----------10-------10---------10-|
|----------------------------------------15--13----13-------13---------|
|----------------------------------------------------------------------|
|----------------------------------------------------------------------|
        .        .                                 .        .

|-------10-----------6-------6-------6-------6-------6-----|
|-11/13----13-----10------10------10------10------10---10--|
|--------------10------10------10------10------10----------|
|----------------------------------------------------------|
|----------------------------------------------------------|
|----------------------------------------------------------|   


Solo 

|------------------------------------------10h11h12/15--13--/22br--|
|---------------------------------10h11h13-------------------------|
|-------------------------8h10h12----------------------------------|
|-----------------8h10h12------------------------------------------|
|---------8h10h12--------------------------------------------------|
|-8h10h12----------------------------------------------------------|


|-18-15-22-------18-----------------------|
|----------18\15----------15--------------|
|-------------------15-17-------15-17*br--|
|----------------------------17-----------|
|-----------------------------------------|
|-----------------------------------------|

|------------15--17h18p17-------------22-22-22-22-22\--|
|--------18----------------15/18-20--------------------|
|------------------------------------------------------|
|-15/17------------------------------------------------|
|------------------------------------------------------|
|------------------------------------------------------|

|----------------------------------------------|
|-------------------------11-------------------|
|--7/10-------7/12-----12----7/10-12----10-----|
|-------8\5p0------10----------------10----10--|
|----------------------------------------------|
|----------------------------------------------|

|--------------------------------------------|
|---------------------11-11------10----------|
|--7/10-------7/12-----------------------12--|
|-------8\5p0------10-------10\8-------------|
|-----------------------------------8/10-----|
|--------------------------------------------|

(Epic Lead Time)

|------17-------------17-------------------------17----------|
|-------------20-------------20-------18-----------------20--|
|-12/15----------12/15----------17\15----15/17\15------------|
|--------15/17----------15/17----------------------15/17-----|
|------------------------------------------------------------|
|------------------------------------------------------------|

|-------------------17br-|
|-------18---------------|
|-17\15----15/17\15------|
|------------------------|
|------------------------|
|------------------------|

|------17-------------17-------------------------17----------|
|-------------20-------------20-------18-----------------20--|
|-12/15----------12/15----------17\15----15/17\15------------|
|--------15/17----------15/17----------------------15/17-----|
|------------------------------------------------------------|
|------------------------------------------------------------|

|-------------------20-20-------|
|-------18----------------18-18-|
|-17\15----15/17\15-------------|
|-------------------------------|
|-------------------------------|
|-------------------------------|

|------17-------------17-------------------------17----------|
|-------------20-------------20-------18-----------------20--|
|-12/15----------12/15----------17\15----15/17\15------------|
|--------15/17----------15/17----------------------15/17-----|
|------------------------------------------------------------|
|------------------------------------------------------------|

|-------17---------------------------17-------------17---------|
|---------------20-------18-----------------20--------------20-|
|-17\15------------17\15----15/17\15-----------17\15-----------|
|---------15/17------------------------15/17-----------15/17---|
|--------------------------------------------------------------|
|--------------------------------------------------------------|

|-------------------17---------------17----------22-22--------|
|-------18------------------20----------------20-------18-18--|
|-17\15----15/17\15------------17\15--------------------------|
|----------------------15/17------------15/17-----------------|
|-------------------------------------------------------------|
|-------------------------------------------------------------|
Tap to rate this tab
# A B C D E F G H I J K L M N O P Q R S T U V W X Y Z