Song name
# A B C D E F G H I J K L M N O P Q R S T U V W X Y Z

Errosion - Dont Take It tab

Name:Glen
Artist:Errosion
Album:Errode
Website:www.angelfire.com/punk3/glent

This band kick ass and this song is easy to play

Intro:

-2-2-2--------------7-7-7---
--------4-4-4-6-6-6---------
----------------------------
----------------------------
----------------------------
----------------------------

-2-2-2--------------7-7-7---
--------4-4-4-6-6-6---------
----------------------------
----------------------------
----------------------------
----------------------------

Main Riff:

-0-0-0-0-4-5-5-4-0-0-0-0-4-5-5-4-0-0-0-0-4-5-5-4-7-7-7-4-5-4
-0-0-0-0-4-5-5-4-0-0-0-0-4-5-5-4-0-0-0-0-4-5-5-4-7-7-7-4-5-4
-0-0-0-0-4-5-5-4-0-0-0-0-4-5-5-4-0-0-0-0-4-5-5-4-7-7-7-4-5-4
------------------------------------------------------------
------------------------------------------------------------
------------------------------------------------------------

Chorus:

-7-7-7-7-7-7-7-7-7-7-7-7-7-7-7-7-7-7-7-7-------
-------5-5-5-5-5-5-5-5-5-5-5-5-5-5-5-5-5-5-5-5-
---------------3-3-3-3-3-3-3-3-3-3-3-3-3-3-3-3-
-----------------------------------------------
-----------------------------------------------
-----------------------------------------------

Outro:

--5-4-3-2-1--
-------------
-------------
-------------
-------------
-------------

Order:

Intro x5
main riff x3
chorus x8
main riff x4
chorus x 8
main riff x3
outro

Expect to hear a lot more about this band over the next few years.
Tap to rate this tab
 
# A B C D E F G H I J K L M N O P Q R S T U V W X Y Z