Song name
# A B C D E F G H I J K L M N O P Q R S T U V W X Y Z

Escape The Fate - We Wont Back Down tab

Help us improve GuitareTab! Take a short survey!
We Wont Back Down
Escape The Fate

tuning-drop c

verse
D---------------------------------------------------------------------------|
A---------------------------------------------------------------------------|
F--7-77s5-7--3--10-9-2-6----------------------------------------------------|
C--7-77s5-7--3--10-9-2-6-----repeat 2x--------------------------------------|
G--5-55s3-5--1---8-7-0-4----------------------------------------------------|
C---------------------------------------------------------------------------|

verse pt.2
D-------------------------------------------------|-------------------------|
A-------------------------------------------------|-------------------------|
F--7-77s5-7-777-----------33333-------------------|-3--5--5-6---------------|
C--7-77s5-7-777-----------33333----------repeat 2x|-3--5--5-6---------------|
G--5-55s3-5-555-8p7-3-0-1-11111-8-7-0-4-----------|-1--3--3-4---------------|
C-------------------------------------------------|-------------------------|
            mmm           mmmmm

chorus
D---------------------------------------------------------------------------|
A---------------------------------------------------------------------------|
F--7-77-777-777-777-101010101010101099999999-333-333-333-333-2-22-222-6-66--|
C--7-77-777-777-777-101010101010101099999999-333-333-333-333-2-22-222-6-66--|
G--5-55-555-555-555--8-8-8-8-8-8-8-877777777-111-111-111-111-0-00-000-4-44--|
C---------------------------------------------------------------------------|

D-----|---------------------------------------------------------------------|
A-----|---------------------------------------------------------------------|
F--666|-7-77s5-7--3--10-9-2-6---repeat 4x-----------------------------------|
C--666|-7-77s5-7--3--10-9-2-6-----------------------------------------------|
G--444|-5-55s3-5--1---8-7-0-4-----------------------------------------------|
C-----|---------------------------------------------------------------------|


verse
D------------------------------------------------|--------------------------|
A------------------------------------------------|--------------------------|
F--7-77s5-7-777777777-3-33333-10-9-2-6-----------|-3-33-3-3-3-3-33-5-55-5-5-|
C--7-77s5-7-777777777-3-33333-10-9-2-6--repeat 2x|-3-33-3-3-3-3-33-5-55-5-5-|
G--5-55s3-5-555555555-1-11111--8-7-0-4-----------|-1-11-1-1-1-1-11-3-33-3-3-|
C------------------------------------------------|--------------------------|
            mmmmmmmmm   mmmmm

D---------------------------------------------------------------------------|
A---------------------------------------------------------------------------|
F--5--6---------------------------------------------------------------------|
C--5--6---------------------------------------------------------------------|
G--3--4---------------------------------------------------------------------|
C---------------------------------------------------------------------------|

chorus
D---------------------------------------------------------------------------|
A---------------------------------------------------------------------------|
F--7-77-777-777-777-101010101010101099999999-333-333-333-333-2-22-222-6-66--|
C--7-77-777-777-777-101010101010101099999999-333-333-333-333-2-22-222-6-66--|
G--5-55-555-555-555--8-8-8-8-8-8-8-877777777-111-111-111-111-0-00-000-4-44--|
C---------------------------------------------------------------------------|

D---------------|-----------------------------------------------------------|
A---------------|-----------------------------------------------------------|
F--666----------|-----------------------------------------------------------|
C--666-repeat 2x|-2-22-2-2-6-6-66-6-7---------------------------------------|
G--444----------|-0-00-0-0-4-4-44-4-5---------------------------------------|
C---------------|-----------------------------------------------------------|

verse(solo)
D---------------------------------------------------------------------------|
A---------------------------------------------------------------------------|
F--7-77s5-7--3--10-9-2-6----------------------------------------------------|
C--7-77s5-7--3--10-9-2-6-----repeat 2x--------------------------------------|
G--5-55s3-5--1---8-7-0-4----------------------------------------------------|
C---------------------------------------------------------------------------|

verse pt.2(solo)
D-------------------------------------------------|-------------------------|
A-------------------------------------------------|-------------------------|
F--7-77s5-7-777-----------33333-------------------|-3--5--5-6---------------|
C--7-77s5-7-777-----------33333----------repeat 2x|-3--5--5-6---------------|
G--5-55s3-5-555-8p7-3-0-1-11111-8-7-0-4-----------|-1--3--3-4---------------|
C-------------------------------------------------|-------------------------|
            mmm           mmmmm


chorus
D---------------------------------------------------------------------------|
A---------------------------------------------------------------------------|
F--7-77-777-777-777-101010101010101099999999-333-333-333-333-2-22-222-6-66--|
C--7-77-777-777-777-101010101010101099999999-333-333-333-333-2-22-222-6-66--|
G--5-55-555-555-555--8-8-8-8-8-8-8-877777777-111-111-111-111-0-00-000-4-44--|
C---------------------------------------------------------------------------|

D---------------|-----------------------------------------------------------|
A---------------|-----------------------------------------------------------|
F--666----------|-----------------------------------------------------------|
C--666-repeat 2x|-2-22-2-2-6-6-66-6-7---------------------------------------|
G--444----------|-0-00-0-0-4-4-44-4-5---------------------------------------|
C---------------|-----------------------------------------------------------|

outro
D-------------------------------------------------|-------------------------|
A-------------------------------------------------|-------------------------|
F--7-77s5-7-777-----------33333-------------------|-7-77s5-7----------------|
C--7-77s5-7-777-----------33333----------repeat 2x|-7-77s5-7----------------|
G--5-55s3-5-555-8p7-3-0-1-11111-8-7-0-4-----------|-5-55s3-5----------------|
C-------------------------------------------------|-------------------------|
            mmm           mmmmm
Related for We Wont Back Down tab