Song name
# A B C D E F G H I J K L M N O P Q R S T U V W X Y Z

Escape The Fate - Make Up tab

Tabbed by:Mike
Email:Mike242787@yahoo.com

Tuning:B F# B E G# C#
intro:
C#|------------------------------------------------|
G#|------------------------------------------------|x3
E||-5-5-5-5----------------------------------------|
B||-5-5-5-5--6-6-6-6--5/6-6--1-1-1-1-1-1-----------|
F#|-3-3-3-3--6-6-6-6--5/6-6--1-1-1-1-1-1-----------|
B||----------6-6-6-6--5/6-6--1-1-1-1-1-1-----------|

C#|------------------------------------|
G#|------------------------------------|
E||-5-5-5-5----------------------------|
B||-5-5-5-5--6-6-6-6--5/6-6--1~--------|
F#|-3-3-3-3--6-6-6-6--5/6-6--1~--------|
B|-----------6-6-6-6--5/6-6--1~--------|
verse:
C#|-------------------------------------|
G#|-------------------------------------|x2
E||-------------------------------------|
B||-1------5-----6-----9-----8----------|
F#|-1(16x)-5(8x)-6(8x)-9(6x)-8(6x)------|
B|--1------5-----6-----9-----8----------|
PM  -      -     -     -     -

Chorus:
C#|---------------------------------------------------|
G#|---------------------------------------------------|x2
E||-5-5-5-5------------------8-8-8-8-8-8-8-8----------|
B||-5-5-5-5--6-6-6-6--5/6-6--8-8-8-8-8-8-8-8----------|
F#|-3-3-3-3--6-6-6-6--5/6-6--6-6-6-6-6-6-6-6----------|
B|-----------6-6-6-6--5/6-6---------------------------|


C#|-------------------------------------------------------|
G#|-------------------------------------------------------|
E||-5--5--5--5-----------------------8-8-8-8-8-8-8-8------|
B||-5--5--5--5--6--6--6--6--8-8/6\8--8-8-8-8-8-8-8-8------|
F#|-3--3--3--3--6--6--6--6--8-8/6\8--6-6-6-6-6-6-6-6------|
B|--------------6--6--6--6--8-8/6\8-----------------------|

C#|---------------------------------|
G#|---------------------------------|
E||-5--5--5--5----------------------|
B||-5--5--5--5--6--6--6--6--1~------|
F#|-3--3--3--3--6--6--6--6--1~------|
B|--------------6--6--6--6--1~------|

Verse
Chorus

Bridge
C#|------------------------------|
G#|------------------------------|x2
E||-5-----------8-8--5--3--------|
B||-5(8x)-6-----8-8--5--3--------|
F#|-3-----6(8x)-6-6--3--1--------|
B|--------6----------------------|

Chorus and outro
C#|---------------------------------------------------------|
G#|---------------------------------------------------------|
E||-5--5--5--5--------------8--8--8--8----------------------|
B||-5--5--5--5--6--6--6--6--8--8--8--8--8-8/6\8-------------|
F#|-3--3--3--3--6--6--6--6--6--6--6--6--8-8/6\8-------------|
B|--------------6--6--6--6--------------8-8/6\8-------------|

C#|--------------------------------------------------|
G#|--------------------------------------------------|
E||-5--5--5--5---------------------------------------|
B||-5--5--5--5--6--6--6--6--1-1-1-1-1-1-1-1----------|
F#|-3--3--3--3--6--6--6--6--1-1-1-1-1-1-1-1----------|
B|--------------6--6--6--6--1-1-1-1-1-1-1-1----------|

C#|---------------------------------------------------------|
G#|---------------------------------------------------------|
E||-5--5--5--5--------------8--8--8--8----------------------|
B||-5--5--5--5--6--6--6--6--8--8--8--8--8-8/6\8-------------|
F#|-3--3--3--3--6--6--6--6--6--6--6--6--8-8/6\8-------------|
B|--------------6--6--6--6--------------8-8/6\8-------------|

C#|---------------------------------|
G#|---------------------------------|
E||-5--5--5--5----------------------|
B||-5--5--5--5--6--6--6--6--1~------|
F#|-3--3--3--3--6--6--6--6--1~------|
B|--------------6--6--6--6--1~------|
Tap to rate this tab
 
# A B C D E F G H I J K L M N O P Q R S T U V W X Y Z