Song name
# A B C D E F G H I J K L M N O P Q R S T U V W X Y Z

Escape The Fate - Its Just Me tab

Okay so I had to be the first one with a tab out for this song. It's got sort of a 
feel to it, and a killer chorus.

Intro/Verse:
-------------------------------------------------------------------------|
-------------------------------------------------------------------------|
--8--------8--------8--------8---------7-------7-------7-------7----7>10-|
--10-------10-------10-------10--------9-------9-------9-------9----9>12-|
-----10-10----10-10----10-10----10-10----10-10---10-10---10-10---10------|
-------------------------------------------------------------------------|

Pre-Chorus:
-----------------------|
-----------------------|
-----------------------|
---6-------5-----------|
---6-------5-----------|
---6-------5-----------|

Chorus:
--------------------------------|
--------------------------------|
-----5--------------------------|
-----5-x4---6--6----5--5--------| x3
-----3------6--6----5--5--------|
------------6--6----5--5--------|

---------------------------------|
---------------------------------|
---------------------------------|
-----6-------5-------------------|
-----6-x4----5-x4----------------|
-----6-------5-------------------|

Verse 2:
------------------------------------------------------------------|
------------------------------------------------------------------|
------------------------------------------------------------------|
------------------------------------------------------------------|
---1010-101010-101010-101010-10-99-999-999-999-12-----------------|
---1010-101010-101010-101010-10-99-999-999-999-12-----------------|

Break 2:
-----------------------------|
-----------------------------|
----5------------------------|
----5-x4----6----------------|
----3-------6-x4-------------|
------------6----------------|

(I know the ending chorus sounds different but it's played as the regular chorus)
Tap to rate this tab
# A B C D E F G H I J K L M N O P Q R S T U V W X Y Z