Guitaretab - guitar tabs
Song name
# A B C D E F G H I J K L M N O P Q R S T U V W X Y Z

Escape The Fate - Something tab

Artist: Escape The Fate
Song: Something
Album: This War Is Ours

intro
guitar 1
e|-------------------------------------------8-8h9---------------|
b|--6h7p6--6--6h7p6--7h9-9----6h7p6--6--6h7--x-x----9------------|
g|--6~-----6--6------6--------6------6--6----6-6----6------------|
d|---------------------------------------------------------------|
a|---------------------------------------------------------------|
D|---------------------------------------------------------------| x3
 |  Play above (intro) once clean and twice overdrive.
 |
 |Guitar 2
e|---------------------------------------------------------------|
b|---------------------------------------------------------------|
g|---------------------------------------------------------------|
d|--4-4--x-x--4-4-4--x-x--8-8--x-x--8-8-8--x-x-------------------|
a|--4-4--x-x--4-4-4--x-x--8-8--x-x--8-8-8--x-x-------------------|
D|--4-4--x-x--4-4-4--x-x--8-8--x-x--8-8-8--x-x-------------------| x2

e|-------|
b|--6~---|
g|--6~---|
d|--6~---|
a|-------|
D|-------|
let ring into verse 1

Verse 1
e|-------------------------------------------------------|
b|----------6--------------------------------------------|
g|----6---6---6---6--------------------------------------|
d|--4---4-------4----------------------------------------|
a|-------------------------------------------------------| 
D|-------------------------------------------------------|
repeat above in backgroung during vocals

(0:38-1:00)  with phaser and/or tremolo
e|-------------------------------------------------------|
b|----------6--------------------------------------------|
g|----6---6---6---6--------------------------------------|
d|--4---4-------4----------------------------------------|
a|-------------------------------------------------------| 
D|-------------------------------------------------------|
 PM . . . . . . . .
[ Tab from: http://www.guitaretab.com/e/escape-the-fate/174083.html ]
Pre-Chorus
e|-------------------------------------------------------|
b|-------------------------------------------------------|
g|-------------------------------------------------------|
d|--1-1~----4-4-4-4--4-4-4-4--x-x------------------------|
a|--1-1~----4-4-4-4--4-4-4-4--x-x------------------------|
D|--1-1~----4-4-4-4--4-4-4-4--x-x------------------------|

Chorus
e|-------------------------------------------------------|
b|-------------------------------------------------------|
g|-------------------------------------------------------|
d|--0-----4-----8-----4-----6----------------------------|
a|--0-x4--4-x4--8-x8--4-x8--6-x8-------------------------|
D|--0-----4-----8-----4-----6----------------------------| x2

Verse 2
e|-------4---------|
b|-----------6~----|
g|----6----6-------|
d|--4--------------|
a|-----------------|
D|-----------------|

e|--4--------------|
b|--------6-----6~-|
g|-----6-----6-----|
d|-----------------|
a|-----------------|
D|-----------------|

tremolo effects throughout verse

Repeat Pre-Chorus

Repeat Chorus


Bridge
e|---------------------------------------------------|
b|---------------------------------------------------|
g|---------------------------------------------------|
d|--8-----6-----1-----66666~-88888~------------------|
a|--8-x8--6-x8--1-x8--66666~-88888~------------------|
D|--8-----6-----1-----66666~-88888~------------------|
 PM                   ....   ....

e|---------------------------------------------------|
b|---------------------------------------------------|
g|---------------------------------------------------|
d|--8-----6-----1-----66666~-4~----------------------|
a|--8-x8--6-x8--1-x8--66666~-4~----------------------|
D|--8-----6-----1-----66666~-4~----------------------|
 PM                   ....   

clean/quiet part
e|----------8---8-9-13---13---11-9-------------------|
b|----6-9-6---6--------9----9------11----------------|
g|--6---------------------------------9-11-7~--------|
d|---------------------------------------------------|
a|---------------------------------------------------|
D|---------------------------------------------------|

overdrive now
e|------------|
b|------------|
g|------------|
d|--6---------|
a|--6---------|
D|--6---------|

Repeat Chorus x2

Repeat intro riff x2



That's it!
Please Comment.


Related for Something tab
Advertisement will be closed in 10 seconds