Song name
# A B C D E F G H I J K L M N O P Q R S T U V W X Y Z

Escape The Fate - You Are So Beautiful tab

Help us improve GuitareTab! Take a short survey!
-------------------------------------------------------------------------------
			     You Are So Beautiful - Escape The Fate
-------------------------------------------------------------------------------
Tabbed by:brokenunder
Email:tears--dont--fall@hotmail.co.uk

Tuning:drop c (CGCFAD)

the new etf album rocks. thought i would quickly tab this song.
pls comment + rate. i know its not all right but its pretty hard 
to work out bits of it.

Intro
d|---------------------------------------------------------------------------|
A|---------------------------------------------------------------------------|
F|---------------------------------------------------------------------------|
C|-33-7-22--33-7-22--33-7-22--33-7-22----------------------------------------|
G|-33-7-22--33-7-22--33-7-22--33-7-22----------------------------------------|
C|-33-7-22--33-7-22--33-7-22--33-7-22----------------------------------------|

Verse
d|---------------------------------------------------------------------------|
A|---------------------------------------------------------------------------|
F|-777767-333323-----------------777767-333323----------------7--------------|
C|-777767-333323-33-77-0---------777767-333323-33-77-77777777-7--------------|
G|-555545-111101-33-77-0---------555545-111101-33-77-55555555-5--------------|
C|---------------33-77-0-2-3-7-----------------33-77-00000000-0--------------|
                                                     PM-----|
Chorus
d|---------------------------------------------------------------------------|
A|---------------------------------------------------------------------------|
F|-777777-333333-------------------------------------------------------------|
C|-777777-333333-333-777-00223377---X2---------------------------------------|
G|-555455-111011-333-777-00223377--------------------------------------------|
C|---------------333-777-00223377--------------------------------------------|

Post Chorus
d|---------------------------------------------------------------------------|
A|---------------------------------------------------------------------------|
F|---------------------------------------------------------------------------|
C|-00000-00------------------------------------------------------------------|
G|-00000-00------------------------------------------------------------------|
C|-00000-00------------------------------------------------------------------|
   PM------|

Verse
d|---------------------------------------------------------------------------|
A|---------------------------------------------------------------------------|
F|-777767-333323-----------------777767-333323-------3-5---------------------|
C|-777767-333323-33-77-0---------777767-333323-33-77-3-5--any divebomb here--|
G|-555545-111101-33-77-0---------555545-111101-33-77-1-3---------------------|
C|---------------33-77-0-2-3-7-----------------33-77-------------------------|
                                                     PM-----|
Chorus
d|---------------------------------------------------------------------------|
A|---------------------------------------------------------------------------|
F|-777777-333333--------------------------------------6666-------------------|
C|-777777-333333-333-777-00223377---X2----0000222233336666--after second time|
G|-555455-111011-333-777-00223377---------0000222233334444-------------------|
C|---------------333-777-00223377---------000022223333-----------------------|
                                          PM-------------|

Bridge
d|---------------------------------------------------------------------------|
A|---------------------------------------------------------------------------|
F|------------66666-66---33333-3---------------------------------------------|
C|-77777-77---77777-77---33333-33-77777-7-023532--X3-------------------------|
G|-55555-55---44444-44---11111-13-55555-5-023532-----------------------------|
C|-00000-00---------------------3-00000-0-023532-----------------------------|
  pm--------------------------------------------|

last time
d|---------------------------------------------------------------------------|
A|---------------------------------------------------------------------------|
F|---------------------------------------------------------------------------|
C|--023532-023532-023532-023532~---------------------------------------------|
G|--023532-023532-023532-023532~---------------------------------------------|
C|--023532-023532-023532-023532~---------------------------------------------|
    pm-----------------------|

Leads for Bridge
d|-------------------------------------14--16--------------------------------|
A|-14--14--16--17--13--17--19--12--12----------------------------------------|
F|---13--13--13--13--13--13--13--13--13--13--13------------------------------|
C|---------------------------------------------------------------------------|
G|---------------------------------------------------------------------------|
C|---------------------------------------------------------------------------|
  Theres a little bit after this but i cant make it out
  because of craigs screaming.


Chorus

Outro
d|---------------------------------------------------------------------------|
A|-----13----13-----13----15-------------------------------------------------|
F|-----15^17-15^17--15^17-17^19----------------------------------------------|
C|-000-----------------------------------------------------------------------|
G|-000-----------------------------------------------------------------------|
C|-000-----------------------------------------------------------------------|



| /  slide up
| \  slide down
| h  hammer-on
| p  pull-off
| ~  vibrato
| +  harmonic
| x  Mute note
===============================================================================
Related for You Are So Beautiful tab