Song name
# A B C D E F G H I J K L M N O P Q R S T U V W X Y Z

Escape The Fate - My Apocalypse Live tab

Tabbed by: AlexDTDT
Email: A_2_the_B@msn.com

Tuning: drop C
this is the latest live version ive listend too, it only has one guitar so heres the tab (:.
sorry for any miss-spellings in the tab :)

Intro
played in clean.
|-----------------------------------------------------|
|--------8--8--8--8------8--9--9----------------------|
|--------9--9--9--9------9--8--8----------------------|
|--------7--7--7--7------7--7--7----------------------|
|--0-----0--0--0--0---0--0--0--0----------------------|
|-----------------------------------------------------|

|--------8--8--8--8-------8--9--9---------------------|
|--------9--9--9--9-------9--8--8---------------------|
|--------10-10-10-10------10-10-10--------------------|
|--8-----8--8--8--8---8---8--8--8---------------------|
|-----------------------------------------------------|

|-----------------------------------------------------|
|--------8--8--8--8------8--9--9----------------------|
|--------9--9--9--9------9--8--8----------------------|
|--------7--7--7--7------7--7--7----------------------|
|--0-----0--0--0--0---0--0--0--0----------------------|
|-----------------------------------------------------|

|---------------------------------------|                |-------|
|--------8--8--8--8---8/10/8----8-------| after srummed  |-------|
|--------9--9--9--9----------9--9-------| slide up the   |-------|
|--------7--7--7--7------------10-------| frte board     |---/10-|
|--0-----0--0--0--0-0-----------8-------| from 10th fret |---/10-|
|---------------------------------------|                |---/10-|

played in driven
Chorus
|------------------------------||------------------------------|
|------------------------------||------------------------------|
|-2-2--x2-2-2----------5-5-5-5-||-2-2--x2-2-2----------5-5-5---|
|-2-2--x2-2-2---3-3-x--5-5-5-5-||-2-2--x2-2-2---3-3-x--5-5-5---| 
|-0-0--x0-0-0---3-3-x--3-3-3-3-||-0-0--x0-0-0---3-3-x--3-3-3---|
|---------------3-3-x----------||---------------3-3-x----------|

|-15-0------15-0------15-0------15-0---------------------15--0-|
|------13-0------13-0------13-0------13-0--10--0--13--0--------|
|--------------------------------------------------------------|
|--------------------------------------------------------------|
|--------------------------------------------------------------|
|--------------------------------------------------------------|

|-----------------------------|
|-13-0--13-15-13-12-12-13-12--|
|-----------------------------|
|-----------------------------|
|-----------------------------|
|-----------------------------|

|-15-0------15-0------15-0------15-0---------------------15--0-|
|------13-0------13-0------13-0------13-0--10--0--13--0--------|
|--------------------------------------------------------------|
|--------------------------------------------------------------|
|--------------------------------------------------------------|
|--------------------------------------------------------------|

|----------------------------------------------------------|
|-13-0--13-15-13-12-12-13-*12*-----13----12---10---15------|
|----------------------------------------------------------|
|----------------------------------------------------------|
|----------------------------------------------------------|
|----------------------------------------------------------|
                           
verse 1
|-15--15--15--15--15--15--12-||-15--15--15--15--15--15--12-15p-12-15p-12---|
|---13--13--13--13--13--13---||---13--13--13--13--13--13-----------------13|
|----------------------------||--------------------------------------------|
|----------------------------||--------------------------------------------|
|----------------------------||--------------------------------------------|
|----------------------------||--------------------------------------------|

|-15--15--15--15--15--15--12--12--||-15--15--15--15--15--15--12--12-----|
|---13--13--13--13--13--13--13--13||---13--13--13--13--13--13--13-------|
|---------------------------------||------------------------------------|
|---------------------------------||---------------------------------/10|
|---------------------------------||---------------------------------/10|
|---------------------------------||---------------------------------/10|

verse 2
|--------------------------------------------------------------|
|--------8---------8----------9--------------------------------|
|--------9---------9----------8---9--9--x----------------------|
|--2-----7----2----7----2-----7---10-10-x----------------------| x2
|--0----------0---------0---------8--8--x----------------------|
|--------------------------------------------------------------|

Chorus
|------------------------------||------------------------------|
|------------------------------||------------------------------|
|-2-2--x2-2-2----------5-5-5-5-||-2-2--x2-2-2----------5-5-5---|
|-2-2--x2-2-2---3-3-x--5-5-5-5-||-2-2--x2-2-2---3-3-x--5-5-5---| 
|-0-0--x0-0-0---3-3-x--3-3-3-3-||-0-0--x0-0-0---3-3-x--3-3-3---|
|---------------3-3-x----------||---------------3-3-x----------|

|------------------------------||--------------------------------------|
|------------------------------||--------------------------------8-----|
|-2-2--x2-2-2---5-5-x----------||-2-2--x2-2-2---5-5-x------------9-----|
|-2-2--x2-2-2---3-3-x--5-5-5-5-||-2-2--x2-2-2---3-3-x--0-0-0--3--7-----| 
|-0-0--x0-0-0---3-3-x--3-3-3-3-||-0-0--x0-0-0---3-3-x--0-0-0--3--0-----|
|----------------------3-3-3-3-||----------------------0-0-0--3-----3~-|

then guitarist pauses/turns off for bass to play
" end transmission, the satterlites are down"
"i need an earthquake to shake this!"

when earthquake is said, turn guitar on and get distortion.

breakdown
|-------------------||--------------------------------------------------|
|-------------------||--------------------------------------------------|
|-------------------||-2---2---2---2---2---2--2-2--------------5--5-5-5-|
|--/pick-scrape-10/-||-2---2---2---2---2---2--2-2----3--3-3-3--5--5-5-5-| 
|--/pick-scrape-10/-||-0---0---0---0---0---0--0-0----3--3-3-3--3--3-3-3-|
|--/pcik-scrape-10/-||-------------------------------3--3-3-3-----------|

|--------------------------------------------------------|
|--------------------------------------------------------|
|-2---2---2---2---2---2--2-2--------------5--5-5-5-------|
|-2---2---2---2---2---2--2-2----3--3-3-3--5--5-5-5---3--/| 
|-0---0---0---0---0---0--0-0----3--3-3-3--3--3-3-3---3--/|
|-------------------------------3--3-3-3-------------3--/|

|--------------------------------------------------------------|
|--------8---------8----------9--------------------------------|
|--------9---------9----------8---9--9--x----------------------|
|--2-----7----2----7----2-----7---10-10-x----------------------| x2
|--0----------0---------0---------8--8--x----------------------|
|--------------------------------------------------------------|

Chorus
|------------------------------------||------------------------------|
|------------------------------------||------------------------------|
|-xxxx--2-2--x2-2-2----------5-5-5-5-||-2-2--x2-2-2----------5-5-5---|
|-xxxx--2-2--x2-2-2---3-3-x--5-5-5-5-||-2-2--x2-2-2---3-3-x--5-5-5---| x2
|-xxxx--0-0--x0-0-0---3-3-x--3-3-3-3-||-0-0--x0-0-0---3-3-x--3-3-3---|
|---------------------3-3-x----------||---------------3-3-x----------|

solo intro
|-----------------------------------------------------------|
|-13--13~---12~---10~---13~-17~---13~-15~--15~-12~--12~-10~-| |-10-12p| x4
|-----------------------------------------------------------|
|-----------------------------------------------------------|
|-----------------------------------------------------------|
|-----------------------------------------------------------|

|----------------------------------------------------------13-12--10|
|-13~--13~-*12*--13~-12~--10~-12~--12~-~13--~13-~15--~-15-~13-12--10|
|-------------------------------------------------------------------|
|-------------------------------------------------------------------|
|-------------------------------------------------------------------|
|-------------------------------------------------------------------|

|------------------------|
|------------------------|
|------------------------|
|-///--------------------|
|-///-finger board slide-|
|-///--------------------|

tapping solo.
slow tap

|-t12p5h7h8-t12p5h7h8-t13p5h7h8-t13p5h7h8-t10p5h7h8-t10p5h7h8-|
|-------------------------------------------------------------|
|-------------------------------------------------------------|
|-------------------------------------------------------------|
|-------------------------------------------------------------|
|-------------------------------------------------------------|

|-t15p5h7h8-t17p5h7h8-|
|---------------------|
|---------------------|
|---------------------|
|---------------------|
|---------------------|

this part gets a little faster

|-t12p5h7h8-t12p5h7h8-t12p5h7h8-t12p5h7h8-t13p5h7h8-t13p5h7h8-|
|-------------------------------------------------------------|
|-------------------------------------------------------------|
|-------------------------------------------------------------|
|-------------------------------------------------------------|
|-------------------------------------------------------------|

|-t13p5h7h8-t13p5h7h8-t10p5h7h8-t10p5h7h8-t10p5h7h8-t10p5h7h8-|
|-------------------------------------------------------------|
|-------------------------------------------------------------|
|-------------------------------------------------------------|
|-------------------------------------------------------------|
|-------------------------------------------------------------|

|-t15p5h7h8-t15p5h7h8-t17p5h7h8-t17~-|
|------------------------------------|
|------------------------------------|
|------------------------------------|
|------------------------------------|
|------------------------------------|

this part is really fast
|-t12p5h7h8-x8-t13p5h7h8-x8-t10p5h7h8-x8-t15p5h7h8-x8-t17p5h7h8-x8-|
|------------------------------------------------------------------|
|------------------------------------------------------------------|
|------------------------------------------------------------------|
|------------------------------------------------------------------|
|------------------------------------------------------------------|

|-t12p5h7h8-t13p5h7h8-t12p5h7h8-t15p5h7h8-|
|-----------------------------------------|
|-----------------------------------------|
|-----------------------------------------|
|-----------------------------------------|
|-----------------------------------------|
                                                     x2
|-t12p5h7h8-t17p5h7h8-t12p5h7h8-t17p5h7h8-|
|-----------------------------------------|
|-----------------------------------------|
|-----------------------------------------|
|-----------------------------------------|
|-----------------------------------------|
but on the last bit tap the 17th fret and let it ring,
or harmonic tap it (sounds good :D)


then n ice slow strum aha.
|------------------------------------------|
|------------------------------------------|
|------------------------------------------|
|-/10--3-3-3-3--0-0-0-0--7-7-7-7--5-5-5-5--|
|-/10--3-3-3-3--0-0-0-0--7-7-7-7--5-5-5-5--|
|-/10--3-3-3-3--0-0-0-0--7-7-7-7--5-5-5-5--|

then faster strum (horse/galloping)
|-------------------------------------------------|
|-------------------------------------------------|
|-------------------------------------------------|
|-3-3-3-3-3-3-3-3-3-3-3-3-0-0-0-0-0-0-0-0-0-0-0-0-|
|-3-3-3-3-3-3-3-3-3-3-3-3-0-0-0-0-0-0-0-0-0-0-0-0-|
|-3-3-3-3-3-3-3-3-3-3-3-3-0-0-0-0-0-0-0-0-0-0-0-0-|
    . .   . .   . .   . .   . .   . .   . .   . .     x2 or just untill
                                                      end of song.
|-------------------------------------------------|  
|-------------------------------------------------|
|-------------------------------------------------|
|-7-7-7-7-7-7-7-7-7-7-7-7-5-5-5-5-5-5-5-5-5-5-5-5-|
|-7-7-7-7-7-7-7-7-7-7-7-7-5-5-5-5-5-5-5-5-5-5-5-5-|
|-7-7-7-7-7-7-7-7-7-7-7-7-5-5-5-5-5-5-5-5-5-5-5-5-|
    . .   . .   . .   . .   . .   . .   . .   . .


| .  palm mute
| /  slide up
| \  slide down
| h  hammer-on
| p  pull-off
| ~  vibrato
| +  harmonic
| x  Dead/Mute note
| *  pinch harmonic 


well thats my tab please rate.
if you find anything wrong then email me (:
Tap to rate this tab
# A B C D E F G H I J K L M N O P Q R S T U V W X Y Z