Song name
# A B C D E F G H I J K L M N O P Q R S T U V W X Y Z

Escape The Fate - Ashley tab

             Okay So these are bits and pieces I have figured out.

Also thank you for listening to good music :)


Im Not sure about the amount of times you strum, play along you will figure it out


-------------------------------------------------------------------------------
			     Ashley - Escape The Fate
-------------------------------------------------------------------------------
Tabbed by:
Guitargawd9800

Tuning:Standard


                              This is for the verses
e|-------------------------------------------------------------------------------|
B|-------------------------------------------------------------------------------|
G|-3-3-3-3-3-3-3-3--5-5-5-5-5-5-5-5--7-7-7-7-7-7-7-7-7-7-7-7-7-7-7---------------|
D|-3-3-3-3-3-3-3-3--5-5-5-5-5-5-5-5--7-7-7-7-7-7-7-7-7-7-7-7-7-7-7------x3-------|
A|-1-1-1-1-1-1-1-1--3-3-3-3-3-3-3-3--5-5-5-5-5-5-5-5-5-5-5-5-5-5-5---------------|
E|-------------------------------------------------------------------------------|


                                 Pre Chorus
e|---------------------------------------------------------------------------|
B|---------------------------------------------------------------------------|
G|-1-1-1-1-1-1-1-1-1-1-1--5-5-5-5-5-5-5-5-5-5-5-5-5-5-5-5-5-5----------------|
D|-1-1-1-1-1-1-1-1-1-1-1--5-5-5-5-5-5-5-5-5-5-5-5-5-5-5-5-5-5----------------|
A|-3-3-3-3-3-3-3-3-3-3-3--3-3-3-3-3-3-3-3-3-3-3-3-3-3-3-3-3-3----------------|
E|---------------------------------------------------------------------------|


| /  slide up
| \  slide down
| h  hammer-on
| p  pull-off
| ~  vibrato
| +  harmonic
| x  Mute note
===============================================================================
Tap to rate this tab
# A B C D E F G H I J K L M N O P Q R S T U V W X Y Z