Song name
# A B C D E F G H I J K L M N O P Q R S T U V W X Y Z

Escape The Fate - Harder Than You Know tab

----------------------------------------------------------------------------
	               Harder Than You Know - Escape The Fate
----------------------------------------------------------------------------
Tabbed by: IglesiasRocker1
Email: Camelkiller52@aim.com

Tuning: Drop C (CGCFAD)

Hey everyone.  This is my first tab ever.  I figured this out the day ETF's new album 
out and when I play it along with the song it sounds just about right.  The only part I'n 
sure about is the fast part but that still sounds about right so let me know what you think!

e|--------------------------------------------------------------------------|
B|-10-----------------/11-10-b13--------------------------------------------|
G|-10----9/12-10---912--------------------91012------------121314------1314-|
D|---1012--------12------------------91012-----------121314------121314-----|
A|------------------------------91012----------121314-----------------------|
E|--------------------------------------------------------------------------|

e|------------------------------------13-13---------------------------------|
B|--11p10--------*10b--------------b13--b13---------------------------------|
G|-------10---10-----10-----101210---------b12-10---------------------------|
D|---------12----------11-12------------------------------------------------|
A|--------------------------------------------------------------------------|
E|--------------------------------------------------------------------------|

Legend:
b = bend
/ = slide up
\ = slide down
* = pinch harmonic (very slight pinch in this solo)
Tap to rate this tab
 
# A B C D E F G H I J K L M N O P Q R S T U V W X Y Z