Song name
# A B C D E F G H I J K L M N O P Q R S T U V W X Y Z

Escape The Fate - 10 Miles Wide tab

Help us improve GuitareTab! Take a short survey!
----------------------------------------------------------------------------
			  Escape The Fate - 10 Miles Wide
----------------------------------------------------------------------------
Tabbed by: IglesiasRocker1
Email: CamelKiller52@aim.com

Tuning: Drop C (CGCFAD)

Intro/Riff:
D|--------------------------------------------------------------------------|
A|--------------------------------------------------------------------------|
F|--------------------------------------------------------------------------|
C|--------3p0--30----2-2----------------------------------------------------|
G|-5p0---------30---4-4-----------------------------------------------------|
C|----0000----030-0---------------------------------------------------------|
      mmm    m   m

Verse:
D|--------------------------------------------------------------------------|
A|--------------------------------------------------------------------------|
F|--------------------------------------------------------------------------|
C|-------3p0--3-0-----Verse-Ending-3333777222222222-------------------------|
G|-5p0--------3-0-----------------------------------------------------------|
C|----0-0---0-3-0-----------------------------------------------------------|
      m m

Chorus:
D|--------------------------------------------------------------------------|
A|--------------------------------------------------------------------------|
F|--------------------------------------------------------------------------|
C|-7-77\5-333--------2------2-2---------------------------------------------|
G|-5-55\3-111-3-3-33-0-222-4-4----------------------------------------------|
C|------------3-3-33---222--------------------------------------------------|

Solo:
D|-------------------------------------12-10-b12-10-------------------------|
A|-b13-10h13p10h13p10h13-b13(whammy)-10-------------------------------------|
F|--------------------------------------------------------------------------|
C|--------------------------------------------------------------------------|
G|--------------------------------------------------------------------------|
C|--------------------------------------------------------------------------|

Bridge (I did my best to figure this out):
D|--------------------------------------------------------------------------|
A|--------------------------------------------------------------------------|
F|---------------------------------------------Second-ending:-b12-12-10-----|
C|--3-5-5/7-53-3-5-5/7-53-3-5-5/7-53------3---------------------------------|
G|-5----------4----------1----------0-7-4---4-0-----------------------------|
C|--------------------------------------------------------------------------|

Bridge Solo (Again, I couldn't really hear what was played.  This is almost all improvised):
D|--------------------------------------------------------------------------|
A|--------------------------------------------------------------------------|
F|---10-12-b12-12-10--10-12-b12-12-10-1515141210------578--------7810-------|
C|-12---------------11-----------------------------578-------7810-----------|
G|----------------------------------------------578------7810---------------|
C|--------------------------------------------------------------------------|

D|--------------------------------------------------------------------------|
A|-------------------------------121415----15---15-15-----------------------|
F|-------------121415------121415------17-b17--b17b17-----------------------|
C|-------121415------121415-------------------------------------------------|
G|-121415-------------------------------------------------------------------|
C|--------------------------------------------------------------------------|


| /  slide up
| \  slide down
| h  hammer-on
| p  pull-off
| ~  vibrato
| +  harmonic
| x  Mute note
============================================================================
Related for 10 Miles Wide tab