Song name
# A B C D E F G H I J K L M N O P Q R S T U V W X Y Z

Escape The Fate - Guillotine tab

Drop C

b=bend
r=release bend
/=slide down
\=slide up
h=hammer-on
p=pull-off

D|12--------------------------16-17-19-16-17-------------|
A|14b17-12-----15b17r-17b19r17--------------17-----------|
F|--------14-13-------------------------------16---------|
C|----------------------------------------------14-------|
G|------------------------------------------------14-----|
C|--------------------------------------------------14/\/|

D|------------------------------------------------------|
A|------------------------------------------------------|
F|----------6h7h9------------7h9h11--------------9h11h13|
C|-----5h7h9-----------7h9h11-------------9h11h12-------|
G|5h7h9----------7h9h11------------9h11h12--------------|
C|------------------------------------------------------|

D|---------------------------------------------------------|
A|---------------------------------------------------------|
F|----------------11h13h14----------------13h14h16-13h14h16|
C|--------11h12h14----------------12h14h16-----------------|
G|11h12h14----------------12h14h16-------------------------|
C|---------------------------------------------------------|

D|17-19b21~-17-17-19b21~-17-17----16----|
A|--------------------------19b22-18b21-|
F|--------------------------------------|
C|--------------------------------------|
G|--------------------------------------|
C|--------------------------------------|
Tap to rate this tab
# A B C D E F G H I J K L M N O P Q R S T U V W X Y Z