Song name
# A B C D E F G H I J K L M N O P Q R S T U V W X Y Z

Escape The Fate - Reverse This Curse Acoustic tab

-------------------------------------------------------------------------------
			     REVERSE THIS CURSE - Escape The Fate
-------------------------------------------------------------------------------
Tabbed by: bltsub
Email: roni_adam@hotmail.com

Tuning:Standard

This is more for an acoustic version.
I know this song doesn't have an acoustic version, but I just kind of figured it out anyways.
Figure out the timing on your own
This is my first tab, so let me know what you think :)

Intro
e|-0---------------------|-0----1----0------3--------------------------------|
B|-1------3--------------|-1----1----1----3-3--------------------------------|
G|-0------4--------------|-2----2----0----4-0--------------------------------|
D|-2------3--------------|-2----3----2----3-0--------------------------------|
A|-3------2----x2--------|-0---(3)---3----2-2---x2---------------------------|
E|-----------------------|-----(1)----------3--------------------------------|



Verse
e|-0----0----0-----1---------------------------------------------------------|
B|-1----1----0-----1---------------------------------------------------------|
G|-2----0----0-----2---------------------------------------------------------|
D|-2----2----2-----3---------------------------------------------------------|
A|-0----3----2----(3)--------------------------------------------------------|
E|-----------0----(1)--------------------------------------------------------|



Pre-Chorus  (I'm not so sure about this part)
e|-0----0----3----0----------------------------------------------------------|
B|-1----1----3----1----------------------------------------------------------|
G|-0----0----0----2----------------------------------------------------------|
D|-2----2----0----2----------------------------------------------------------|
A|-3----3----2----0----------------------------------------------------------|
E|-----------3---------------------------------------------------------------|



Chorus
e|-0----1----0------3--------------------------------------------------------|
B|-1----1----1----3-3--------------------------------------------------------|
G|-2----2----0----4-0--------------------------------------------------------|
D|-2----3----2----3-0--------------------------------------------------------|
A|-0---(3)---3----2-2--------------------------------------------------------|
E|-----(1)----------3--------------------------------------------------------|



Pre-Verse (Not so sure about this part either)
e|-0---------0---------------------------------------------------------------|
B|-1--x24----1--(Hold for a second, than go back to verse)-------------------|
G|-2---------2---------------------------------------------------------------|
D|---------------------------------------------------------------------------|
A|---------------------------------------------------------------------------|
E|---------------------------------------------------------------------------|


Bridge
e|-0----0---------3-----|-0----1----0----3-----------------------------------|
B|-1----1----2----3-----|-1----3----1----3-----------------------------------|
G|-2----0----4----0-----|-0----2----2----0-----------------------------------|
D|-2----2----3----0-----|-2----0----2----0-----------------------------------|
A|-0----3----2----3--x2-|-3---------0----2--x4-------------------------------|
E|----------------3-----|----------------3-----------------------------------|

----------------------------------------------------------------------------
Order

Intro x1
Verse x2
Pre-Chorus x2
Chorus x2
Pre-Verse x1
Verse x2
Pre-Chorus x2
Chorus x2
Bridge x1
Chorus x4
Outro (same as first part of bridge) x2
Tap to rate this tab
# A B C D E F G H I J K L M N O P Q R S T U V W X Y Z