Song name
# A B C D E F G H I J K L M N O P Q R S T U V W X Y Z

Escape The Fate - The Guillotine tab

There isn't a correct tab on this site, so I made one that is. The tuning is Drop C.

|10----------12--12b14r12----16-17-19-16-17------------------------------------------|
|10b12r10-10-------------------------------17----------------------------------------|
|---------------------------------------------16\14----------------------------------|
|---------------------------------------------------16\14-------16\14----------------|
|---------------------------------------------------------16\14-------16\14---14\12--|
|------------------------------------------------------------------------------------|

|---------------------------------------------------------------------------------------|
|---------------------------------------------------------------------------------------|
|-----------6-7-9-------------7-9-11----------------9-11-13-------------------11-13-14--|
|-----5-7-9------------7-9-11---------------9-11-12------------------11-12-14-----------|
|5-7-9-----------7-9-11-------------9-11-12-----------------11-12-14--------------------|
|---------------------------------------------------------------------------------------|

|----------------------------------------------------------17-16------|
|---------------------------------------------------------------------|
|------------------13-14-16-13-14-16(/)18-16-14--18-16-14-------------|
|---------12-14-16----------------------------------------------------|
|12-14-16-------------------------------------------------------------|
|---------------------------------------------------------------------|


(/) Legato Slide Up
/ Slide Down
Tap to rate this tab
 
# A B C D E F G H I J K L M N O P Q R S T U V W X Y Z