Song name
# A B C D E F G H I J K L M N O P Q R S T U V W X Y Z

Escape The Fate - Ashley tab

Ashley – Escape the fate tab - Rhythm guitar
Tabbed by AshSchecter
Tuning - Drop D


Main riff- distortion
 e|--------------------------------------------------------------------|
b|---------------------------------------------------------------------|
g|-5-/--7--7--7-----14- 14--14--/-9--9-/--10-10---7--7----5---5--------|
d|-x-/--x--x--x-----x---x---x--/--x--x-/---x--x---x--x----x---x--------|  
a|-3-/--5--5--5----12--12--12-/---7--7-/----8--8---5--5----3---3-------|
E|---------------------------------------------------------------------|

This isn’t the proper riff but I do this. (Verse, clean)
e|----------------------------------------------------------|
b|----------------------------------------------------------|
g|-------3----------------5-----------------7---------------|
d|----3------X5---------5--------X5-------7---X10-----------|   
a|-1------------------3-----------------5-------------------|
E|----------------------------------------------------------|


Pre chorus – Palm Muted I think. (Distortion)
e|---------------------------------------------------------------------|
b|---------------------------------------------------------------------|
g|-3--------------5-----------------------------5)---------------------|
d|-3----X16-------5---X16----(slowly release on 5)---------------------|
a|-1--------------3-----------------------------3)---------------------|
E|---------------------------------------------------------------------|


The chorus (distortion) Each chord strum 4 times.
e|---------------------------------------------------------------------|
b|---------------------------------------------------------------------|
g|---3--------------5--------7-------3--------10-------5------7--------|
d|---3------3-------5--------7-------3--------10-------5------7--------|
a|---1------3-------3--------5-------1--------8--------3------5--------|
E|----------3----------------------------------------------------------|

Pre bridge? (Distortion)
e|------|
b|------|
g|--3---|
d|--x---| x 8
a|--1---|
E|------|

Bridge (Distortion)
Do this twice, but instead of doing the 3x5 four times, bend the 3rd fret on the a string twice.

e|--------------------------------|
b|--------------------------------|    
g|--7-----5-----3-----------5-----|     
d|--x-X8--x-X8--x-X8--3-----x-X4--|
a|--5-----3-----1-----3-X4--3-----|
E|--------------------3-----------|

Finish:
e|----------------|
b|----------------|
g|--5-/-7--7------|
d|--x-/-x--x------|
a|--3-/-5--5------|
E|----------------|
order of riffs:
Main riff - x4
Verse - x2
Pre chorus
Chorus - x2
Main riff - x2
Verse - x2
Pre chorus
Chorus - x2
Pre bridge
Bridge - x2
Chorus - x4
Pre Bridge
Main riff - x2
Finish

Tap to rate this tab
# A B C D E F G H I J K L M N O P Q R S T U V W X Y Z