Song name
# A B C D E F G H I J K L M N O P Q R S T U V W X Y Z

Escape The Fate - Guillotine tab

The Guillotine  -  4:33
Escape The Fate
Dying Is Your Latest Fashion

GTR1-CGCFAD	
GTR2-CGCFAD

Intro
Gtr1
|-2---5p2-----2-|   
|---------2-5---|   
|---------------|   
|---------------|   
|---------------| x4
|---------------|   

GTR2
|----------------|   
|----------------|   
|----------------|   
|-4--4--0--0--//-|   
|-4--4--0--0--//-| 
|-4--4--0--0--//-|   

Verse One
Both
|------------------------------------|   
|------------------------------------|   
|------------------------------------|   
|--------------------------2-0-------|   
|----------5-4------5------------4-0-| 
|-4-4-4-4------4-4----4-4------4-----|   
  . . . .      . .    . .      .
|------------------------------------|   
|------------------------------------|   
|------------------------------------|   
|-------------------2---2-4----------|  
|----------5-4-------------4-5-4-2-0-| x4
|-0-0-0-0------0-0----2--------------|   
  . . . .      . .    .

Pre Chorus
GTR1
|--------------------------------------|   
|--------------------------------------|   
|--------------------------------------|   
|--------------------------------------|   
|-0-0-0-0----2-2-2-2--2-2-2-2--2-2-2-2-| 
|-0-0-0-0----2-2-2-2--2-2-2-2--2-2-2-2-|   
  . . . .    . . . .  . . . .  . . . .
|--------------------------------------|   
|--------------------------------------|   
|--------------------------------------|   
|--------------------------------------|   
|-4-4-4-4----7-7-7-7--2-2-2-2--2-2-2-2-| 
|-4-4-4-4----7-7-7-7--2-2-2-2--2-2-2-2-|   
  . . . .    . . . .  . . . .  . . . .
|--------------------------------------|   
|--------------------------------------|   
|--------------------------------------|   
|--------------------------------------|   
|-0-0-0-0----2-2-2-2--2-2-2-2--2-2-2-2-| 
|-0-0-0-0----2-2-2-2--2-2-2-2--2-2-2-2-|   
  . . . .    . . . .  . . . .  . . . .
|--------------------------------------------|   
|--------------------------------------------|   
|-----------------------------18-18-18-18-16-|   
|--------------------------------------------|   
|-4-4-4-4----7-7-7-7----------16-16-16-16-14-| 
|-4-4-4-4----7-7-7-7-------------------------|   
  . . . .    . . . .
GTR2
|----------------------------------|------------------------------|   
|----------------------------------|------------------------------|   
|----------------------------------|------------------------------|   
|-7-0-6-0-4-0-9-11-9-0-7-0-6-0-4-0-|-7-0-6-0-4-0-11-0-9-0-7-0-6-0-|   
|----------------------------------|------------------------------| 
|----------------------------------|------------------------------|   

|---------------------------------------------------------|   
|---------------------------------------------------------|   
|------------------------------------------14-14-14-14-13-|   
|-7-0-6-0-2-0-4-0-7-0-9-0-6-0-7-0-6-0-4-0-----------------|   
|------------------------------------------12-12-12-12-11-| 
|---------------------------------------------------------|   

Chorus
GTR1
|-------------------------------------------------------------|   
|-------------------------------------------------------------|   
|-------------------------------------------------------------|   
|-0----2----4----0----2----4----7----9----xxx-2----0-----2----|   
|-0-x6-2-x6-4-x8-0-x6-2-x6-4-x8-7-x8-9-x4-xxx-2-x6-0-x10-2-x6-| 
|-0----2----4----0----2----4----7----9----xxx-2----0-----2----|   

GTR2
|-----------------------|----|-----------|   
|-----------------------|----|-----------|   
|-14-14-14-13-13-13-9-9-|----|-9---11----|   
|-----------------------|----|--x6---x10-|   
|-12-12-12-11-11-11-7-7-|-x2-|-7---9-----| 
|-----------------------|----|-----------|   

|-----------------------|----|-------------------------|   
|-----------------------|----|-------------------------|   
|-14-14-14-13-13-13-9-9-|----|-9---11----14---16-------|   
|-----------------------|----|--x6---x10---x8---x8-xxx-|   
|-12-12-12-11-11-11-7-7-|-x2-|-7---9-----12---14---xxx-| 
|-----------------------|----|---------------------xxx-|   

|---------------------------------|   
|---------------------------------|   
|-9---11----14-14-14-13-13-13-9-9-|   
|--x6---x10-----------------------|   
|-7---9-----12-12-12-11-11-11-7-7-| 
|---------------------------------|   

Post Chorus
Both
|-----------------------------|   
|-----------------------------|   
|-----------------------------|   
|-----------------------------|   
|-0-0---0-0---0-0---0-0---0-0-| 
|-0-0---0-0---0-0---0-0---0-0-|   

Repeat Verse
Repeat Pre Chorus
Repeat Chorus
Repeat Intro
Build Up
GTR1
|-2---5p2-----2-|   
|---------2-5---|   
|---------------|   
|---------------|   
|---------------| x8
|---------------|   

GTR2
|----------------------------|   
|-10-x16-9-x16-10-x16-12-x16-|   
|----------------------------|   
|----------------------------|   
|----------------------------| x2
|----------------------------|   

Solo
GTR1
|-----------------------------------16-17-19-16-17----------------------|   
|-17-----------------------17b19-17----------------17-------------------|   
|-19b22-----------------------------------------------16-14-------------|   
|-------16-------18b20b18-----------------------------------14----------|   
|----------19-18-----------------------------------------------14-------| 
|-----------------------------------------------------------------14-12-|   

|----------------------------------------------------------------------------------------|   
|----------------------------------------------------------------------------------------|   
|-------------------------------------13-------------------13-14-------------------13-14-|   
|----------12-14-16----------12-14-16-------------12-14-16----------------12-14-16-------|   
|-12-14-16----------12-14-16-------------12-14-16----------------12-14-16----------------| 
|----------------------------------------------------------------------------------------|   

|-----------------------------------------19b21b19-17--19b21b19-17-17--16--|   
|----------------------13-14-16-13-14-16---------------------------19b-18b-|   
|-------------------12-----------------------------------------------------|   
|----------12-14-16--------------------------------------------------------|   
|-12-14-16-----------------------------------------------------------------| 
|--------------------------------------------------------------------------|   

GTR2
|---------------------------------------------------------17--16--|   
|-------------------------------12b14b12-10--12b14b12--10-19b-18b-|   
|-----------------------------------------------------------------|   
|-7----6----4----0----7----6--------------------------------------|   
|-7-x6-7-x6-4-x6-0-x6-7-x6-7-x6-----------------------------------| 
|-7----6----4----0----7----6--------------------------------------|   

Repeat Chorus
Post Chorus
Both
|-----------------|   
|-----------------|   
|-----------------|   
|-----------------|   
|-7-7-6-5-4-3-2-1-| 
|-7-7-6-5-4-3-2-1-|   

Repeat Pre Chorus
End On
|---------|   
|---------|   
|---------|   
|---------|   
|-0-0-0-0-| 
|-0-0-0-0-|   

Tap to rate this tab
 
# A B C D E F G H I J K L M N O P Q R S T U V W X Y Z