Song name
# A B C D E F G H I J K L M N O P Q R S T U V W X Y Z

Escape The Fate - Webs We Weave tab

Tabbed by: GuitarLover599
Lead is on top and rhythm is on bottom if something is wrong please tell me so I
can correct them. Hope you like.
Tuning:Drop D (DADGBE)

Intro Lead   Part 1
|---------------------------------------------------------------------|
|---------------------------------------------------------------------|
|-----10-10-10-10-10-9-9-9-9/10---------14-14-14-14-14-12-12-12-12/14-|
|x00---x—-x--x--x—-x-x-x-x-x/x--x00-----x--x--x--x--x—-x——x--x——x—/-x-|
|x00---8--8--8--8—-7-7-7-7-7/8--x00----12-12-12-12-12-10-10-10--10/-12|
|x00----------------------------x00-----------------------------------|
  Intro Rythm
|---------------------------------------------------------------------|
|---------------------------------------------------------------------|
|-----10-10-10-10-10-9-9-9-9/10--------10-10-10-10-10-9-9-9-9/10------|
|-00---x—-x--x--x—-x-x-x-x-x/x--x00--- x—-x--x--x—-x-x-x-x-x-/-x -----|
|-00---8--8--8--8—-7-7-7-7-7/8--x00----8--8--8--8—-7-7-7-7-7-/-8------|
|-00----------------------------x00-----------------------------------|
              Part 2 of Intro
|---------------------------------------------------------------------|
|---------------------------------------------------------x-x-x-------|
|-10-10-10-10-10-10-9-9-9-9/10\-9-10-10-10-10-/12-9-9-9---x-x-x-------|
|-x—-x--x--x--x--x--x-x-x-x/x-\-x--x--x--x--x-/x--x-x-x---x-x-x-------|
|-8—-8—-8--8--8--8--7-7-7-7/8-\-7-8--8--8--8-/10--7-7-7---x-x-x-------|
|---------------------------------------------------------------------|

|---------------------------------------------------------------------|
|---------------------------------------------------------------------|
|-----------------------------------------------------x-x-x-----------|
|-8-8-8-8-8-8-8-8-8-8-8-8--10-10-10-10-10-10-10-10-10-x-x-x-----------|
|-8-8-8-8-8-8-8-8-8-8-8-8--10-10-10-10-10-10-10-10-10-x-x-x-----------|
|-8-8-8-8-8-8-8-8-8-8-8-8--10-10-10-10-10-10-10-10-10-x-x-x-----------|

REPEAT INTRO
  Verse
|------------------------------------------------------------------|
|------------------------------------------------------------------|
|-----7—9-10------12-10-9------7-9-5--------9/10\9-------9-10\9----|
|-00----------00-----------88---------3-3-3-x/x-\x-2-2-2-x/x-\x----|
|-00----------00-----------88---------3-3-3-7/8-\7-3-3-3—7/8-\7----|
|-00----------00-----------88---------3-3-3--------2-2-2-----------|
Repeat Verse

|--------------------------------------------------------------------|
|--------------------------------------------------------------------|
|----!7—9-10-----!12-10-9----!7-9-10---------------------------------|
|-00----------00-----------88---------3-3-3-X-X-2-2-2-X-X-X----------|
|-00----------00-----------88---------3-3-3-X-X-3-3-3—X-X-X----------|
|-00----------00-----------88---------3-3-3-X-X-2-2-2-X-X-X----------|
      10-12-14   15-14-12     10-12-9--------------------------------|
Repeat Verse but where ! change to wat is below mesure
|----------------------------------------------|
|-7-7-7---7-7-7---7-7-7---7-7--!9~----5--5-----|
|-x-x-x---x-x-x---x-x-x---x-x--!x~----x--x-----|
|-5-5-5---5-5-5—--5-5-5---5-5--!7~----3--3-----|
|----------------------------------------------|
|----------------------------------------------|
  Repeat mesure before !!! wit chords 7x9 and 8x10 instead of wit 5x7

|---------------------------------------------------------------------------|
|---------------------------------------------------------------------------|
|---------------------------------------------------------------------------|
|-8-8-8---8-8-8---8-8-8---8-8!---7~---3—-3----------------------------------|
|-8-8-8---8-8-8---8-8-8---8-8!---7~---3--3----------------------------------|
|-8-8-8---8-8-8---8-8-8---8-8!---7~---3--3----------------------------------|
Repeat mesure before !!! wit chords 10-10-10 and 8-8-8 instead of wit 8-8-8-|


INTRO IS CHORUS so do chorus twice

  Lead
|----------------|
|----------------|
|----------------|
|----------------|
|-00-----00------|
|-00-----00------|
|-00-----00------|
   REPET VERSE EXACTLY HOW I WROTE IT STOP AT INTRO IS CHORUs……|

DO CHORUS TWICE
BRIDGE/SOLO

  LEAD
|---------------------------------------------------------------------|
|---------------------------------------------------------------------|
|----10-9-10-17----12-10-14-10-9-------REPET-THIS-solo-15-MORE-TMES---|
|--8------------15---------------10-------00----x00-------------------|
|-----------------------------------------00----x00-----0-------------|
|-----------------------------------------00----x00-----0-------------|
     RYTHM                                              .
|--------------------------------------------------------------------|
|--------------------------------------------------------------------|
|--------------------------------------------------------------------|
|-8------10------12--------------------------------------------------|
|-8------10------12-------listen dere r eighth rest on 121212 -------|
|-8-x14--10-x14--12-x28---repeat  3more times------------------------|
     RYTHM
|---------------------------------------|
|---------------------------------------|
|---------------------------------------|
|-00-----x00----------------------------|
|-00-----x00------0---------------------|
|-00-----x00------0---------------------|
                  .
   BOTH GUITARS
 Ending Chorus is
Intro Part 2 and then play intro ONCE. Then this
|--------------------|
|--------------------|
|--------------------|
|-0-0-x-0------------|
|-0-0-x-0------------|
|-O-O-x-0-0~---------|
Tap to rate this tab
 
# A B C D E F G H I J K L M N O P Q R S T U V W X Y Z