Song name
# A B C D E F G H I J K L M N O P Q R S T U V W X Y Z

Escape The Fate - Make Up tab

okay so the only good tab is up but its in drop b
and etf doesnt play in drop b, they play drop c
(when they had ronnie, and not shitty craig)
anyways, so here it the same tab but in drop c
for all u lazy fcks out there, its just the
rhythm so dont ask for lead, i only do rhythm
maybe ill do lead some other time, or if you have lead
send me via email it and ill give u props and cred.
adrinhxcmusic@yahoo.com
kk here it is

d|---------------------------------------------------|
a|---------------------------------------------------|x3
f||-4-4-4-4------------------------------------------|
c||-4-4-4-4--5-5-5-5--4/5-5--0-0-0-0-0-0-------------|
g|--2-2-2-2--5-5-5-5--4/5-5--0-0-0-0-0-0-------------|
c||----------5-5-5-5--4/5-5--0-0-0-0-0-0-------------|

d|---------------------------------------|
a|---------------------------------------|
f||-4-4-4-4------------------------------|
c||-4-4-4-4--5-5-5-5--4/5-5--0~----------|
g|--2-2-2-2--5-5-5-5--4/5-5--0~----------|
c|-----------5-5-5-5--4/5-5--0~----------|
verse:
d|----------------------------------------|
a|----------------------------------------|x2
f||---------------------------------------|
c||-0------4-----5-----8-----7------------|
g|--0(16x)-4(16x)5(16x)8(8x)-7(8x)--------|
c|--0------4-----5-----8-----7------------|
PM  -      -     -     -     -

Chorus:
d|------------------------------------------------------|
a|------------------------------------------------------|x2
f||-4-4-4-4------------------7-7-7-7-7-7-7-7------------|
c||-4-4-4-4--5-5-5-5--4/5-5--7-7-7-7-7-7-7-7------------|
g|--2-2-2-2--5-5-5-5--4/5-5--5-5-5-5-5-5-5-5------------|
c|-----------5-5-5-5--4/5-5-----------------------------|


d|----------------------------------------------------------|
a|----------------------------------------------------------|
f||-4--4--4--4-----------------------7-7-7-7-7-7-7-7--------|
c||-4--4--4--4--5--5--5--5--7-7/5\7--7-7-7-7-7-7-7-7--------|
g|--2--2--2--2--5--5--5--5--7-7/5\7--5-5-5-5-5-5-5-5--------|
c|--------------5--5--5--5--7-7/5\7-------------------------|

d|------------------------------------|
a|------------------------------------|
f||-4--4--4--4------------------------|
c||-4--4--4--4--5--5--5--5--0~--------|
g|--2--2--2--2--5--5--5--5--0~--------|
c|--------------5--5--5--5--0~--------|

Verse
Chorus

Bridge
d|---------------------------------|
a|---------------------------------|x2
f||-4-----------7-7--4--2----------|
c||-4(8x)-5-----7-7--4--2----------|
g|--2-----5(8x)-5-5--2--0----------|
c|--------5------------------------|

Chorus and outro
d|------------------------------------------------------------|
a|------------------------------------------------------------|
f||-4--4--4--4--------------7--7--7--7------------------------|
c||-4--4--4--4--5--5--5--5--7--7--7--7--7-7/5\7---------------|
g|--2--2--2--2--5--5--5--5--5--5--5--5--7-7/5\7---------------|
c|--------------5--5--5--5--------------7-7/5\7---------------|

d|-----------------------------------------------------|
a|-----------------------------------------------------|
f||-4--4--4--4-----------------------------------------|
c||-4--4--4--4--5--5--5--5--0-0-0-0-0-0-0-0------------|
g|--2--2--2--2--5--5--5--5--0-0-0-0-0-0-0-0------------|
c|--------------5--5--5--5--0-0-0-0-0-0-0-0------------|

d|------------------------------------------------------------|
a|------------------------------------------------------------|
f||-4--4--4--4--------------7--7--7--7------------------------|
c||-4--4--4--4--5--5--5--5--7--7--7--7--7-7/5\7---------------|
g|--2--2--2--2--5--5--5--5--5--5--5--5--7-7/5\7---------------|
c|--------------5--5--5--5--------------7-7/5\7---------------|

d|---------------------------------------|
a|---------------------------------------|
f||-4--4--4--4---------------------------|
c||-4--4--4--4--5--5--5--5--0~-----------|
g|--2--2--2--2--5--5--5--5--0~-----------|
c|--------------5--5--5--5--0~-----------|
Tap to rate this tab
 
# A B C D E F G H I J K L M N O P Q R S T U V W X Y Z