Song name
# A B C D E F G H I J K L M N O P Q R S T U V W X Y Z

Escape The Fate - When I Go Out I Want To Go Out On A Chariot Of Fire tab

Lead guitar is on top, rythm guitar on bottom.
Drop D tuning.

I know that ETF plays in drop c, i play in drop d quite often so this is the way i learned it. 
if you really want it in drop c you can go up 2 frets on almost all parts.
some parts are split into 2 sections so they would fit online, its obvious.

INTRO

E|------------------------------------------------------------------------| 
B|------------------------------------------------------------------------|
G|--10101010-9-9-9-9-9-9-9-9----------------------------------------------|
D|--12121212-1212121212121212---------------------------------------------|
A|------------------------------------------------------------------------|
D|------------------------------------------------------------------------| (x4)

E|--------------------------------||--------------------------------------|
B|--------------------------------||--------------------------------------|
G|-7~~~77~~~~777------------------||--------777777777777-000-1------------|
D|-7~~~77~~~~777------------------||--------777777777777-000-1------------|
A|-5~~~55~~~~555------------------||--------555555555555-000-1------------|
D|--------------------------------||--------------------------------------|
                                                         ...







E|------------------------------------------------------------------------| 
B|------------------------------------------------------------------------|
G|------------------------------------------------------------------------|
D|----------------00------------8------------88------------8p0------------|
A|-----0000000000-00-0000000000-8-8888888888-88-8888888888-8p0------------|
D|-----0000000000-00-0000000000-8-8888888888-88-8888888888-8p0------------|
       ..........    ..........   ..........    ..........

E|------------------------------------------------------------------------| 
B|------------------------------------------------------------------------|
G|------------------------------------------------------------------------|
D|----------------00------------8------------88------------8p0------------|
A|-----0000000000-00-0000000000-8-8888888888-88-8888888888-8p0------------|
D|-----0000000000-00-0000000000-8-8888888888-88-8888888888-8p0------------|
       ..........    ..........   ..........    ..........








E|------------------------------------------------------------------------| 
B|------------------------------------------------------------------------|
G|------21-20-14--21-20-14--21-20-16--21-20-16----------------------------|
D|------------------------------------------------------------------------|
A|------------------------------------------------------------------------|
D|------------------------------------------------------------------------|


E|------------------------------------------------------------------------| 
B|------------------------------------------------------------------------|
G|------------------------------------------------------------------------|
D|----------------00------------8------------88---------------------------|
A|-----0000000000-00-0000000000-8-8888888888-88-8888888888----------------|
D|-----0000000000-00-0000000000-8-8888888888-88-8888888888----------------|
       ..........    ..........   ..........    ..........









E|------------------------------------------------------------------------| 
B|------------------------------------------------------------------------|
G|---------------10\9\7-------------------10-14141414-1212----------------|
D|---88--88-88-----------1212-1212-1010---x--x-x-x-x--x-x-----------------|
A|---88--88-88---8-\7\5--1212-1212-1010---8--10101010-1010----------------|
D|---88--88-88-----------1212-1212-1010-----------------------------------|
         .                    .


E|------------------------------------------------------------------------| 
B|------------------------------------------------------------------------|
G|---------------10\9\7-------------------10-14141414-1212----------------|
D|---88--88-88-----------1212-1212-1010---x--x-x-x-x--x-x-----------------|
A|---88--88-88---8-\7\5--1212-1212-1010---8--10101010-1010----------------|
D|---88--88-88-----------1212-1212-1010-----------------------------------|
         .                    .








E|------------------------------------------------------------------------| 
B|------------------------------------------------------------------------|
G|-9999-101010101010-9999-101010101010-10101010-121212121212-10101010-12~~|
D|-xxxx-x-x-x-x-x-x--xxxx--x x x x x x-x-x-x-x--x-x-x-x-x-x--x-x-x-x--x-~~|
A|-9999 101010101010-9999 101010101010-10101010-121212121212-10101010-12~~|
D|------------------------------------------------------------------------|

E|------------------------------------------------------------------------| 
B|------------------------------------------------------------------------|
G|---------------10\9\7---------------------------------------------------|
D|---88--88-88-----------1212-1212-1010-----------------------------------|
A|---88--88-88---8-\7\5--1212-1212-1010-----------------------------------|
D|---88--88-88-----------1212-1212-1010-----------------------------------|
         .                    .









E|------------------------------------------------------------------------| 
B|------------------------------------------------------------------------|
G|--171717171717-99999999-171717171717-99999999-171717171717-99999999-----|
D|--x-x-x-x-x-x--xxxxxxxx-x-x-x-x-x-x--xxxxxxxx-x-x-x-x-x-x--xxxxxxxx-----|
A|--151515151515-77777777-151515151515-77777777-151515151515-77777777-----|
D|------------------------------------------------------------------------|

E|------------------------------------------------------------------------| 
B|------------------------------------------------------------------------|
G|------------------------------------------------------------------------|
D|--888888888888888888888888-1010101010101010101010101010101010101010-000-|
A|--888888888888888888888888-1010101010101010101010101010101010101010-000-|
D|--888888888888888888888888 1010101010101010101010101010101010101010-000-|
                                                                      ...









E|------------------------------------------------------------------------| 
B|------------------------------------------------------------------------|
G|-----14--12--10--9--14--17--14--17--14--12--10--9--12--13--14--17-------|
D|-----x---x---x---x--x---x---x---x---x---x---x---x--x---x---x---x--------|
A|-----12--10--8---7--12--15--12--15--12--10--8---7--10--11--12--15-------|
D|------------------------------------------------------------------------|
(listen to song for strumming


E|------------------------------------------------------------------------| 
B|------------------------------------------------------------------------|
G|------------------------------------------------------------------------|
D|-----7------------3------------8------------10------------101010--------|
A|-----7------------3------------8------------10------------101010--------|
D|-----7------------3------------8------------10------------101010--------|
(listen to song for strumming)
                                                            . . .









E|------------------------------------------------------------------------| 
B|------------------------------------------------------------------------|
G|---------------10\9\7-------------------10-14141414-1212----------------|
D|---88--88-88-----------1212-1212-1010---x--x-x-x-x--x-x-----------------|
A|---88--88-88---8-\7\5--1212-1212-1010---8--10101010-1010----------------|
D|---88--88-88-----------1212-1212-1010-----------------------------------|
         .                    . 

E|------------------------------------------------------------------------| 
B|------------------------------------------------------------------------|
G|---------------10\9\7-------------------10-14141414-1212----------------|
D|---88--88-88-----------1212-1212-1010---x--x-x-x-x--x-x-----------------|
A|---88--88-88---8-\7\5--1212-1212-1010---8--10101010-1010----------------|
D|---88--88-88-----------1212-1212-1010-----------------------------------|
         .                    .









E|------------------------------------------------------------------------| 
B|------------------------------------------------------------------------|
G|-9999-101010101010-9999-101010101010-10101010-121212121212-10101010-12~~|
D|-xxxx-x-x-x-x-x-x--xxxx--x x x x x x-x-x-x-x--x-x-x-x-x-x--x-x-x-x--x-~~|
A|-9999 101010101010-9999 101010101010-10101010-121212121212-10101010-12~~|
D|------------------------------------------------------------------------|

E|------------------------------------------------------------------------| 
B|------------------------------------------------------------------------|
G|---------------10\9\7---------------------------------------------------|
D|---88--88-88-----------1212-1212-1010-----------------------------------|
A|---88--88-88---8-\7\5--1212-1212-1010-----------------------------------|
D|---88--88-88-----------1212-1212-1010-----------------------------------|
         .                    .










E|------------------------------------------------------------------------| 
B|------------------------------------------------------------------------|
G|--171717171717-99999999-171717171717-99999999-171717171717-99999999-----|
D|--x-x-x-x-x-x--xxxxxxxx-x-x-x-x-x-x--xxxxxxxx-x-x-x-x-x-x--xxxxxxxx-----|
A|--151515151515-77777777-151515151515-77777777-151515151515-77777777-----|
D|------------------------------------------------------------------------|

E|------------------------------------------------------------------------| 
B|------------------------------------------------------------------------|
G|------------------------------------------------------------------------|
D|--888888888888888888888888-1010101010101010-------------------------000-|
A|--888888888888888888888888-1010101010101010-------------------------000-|
D|--888888888888888888888888 1010101010101010-------------------------000-|
                                                                      ...








E|------------------------------------------------------------------------| 
B|------------------------------------------------------------------------|
G|-----14--12--10--9--14--17--14--17--14--12--10--9--12--13--14--17-------|
D|-----x---x---x---x--x---x---x---x---x---x---x---x--x---x---x---x--------|
A|-----12--10--8---7--12--15--12--15--12--10--8---7--10--11--12--15-------|
D|------------------------------------------------------------------------|
(listen to song for strumming


E|------------------------------------------------------------------------| 
B|------------------------------------------------------------------------|
G|------------------------------------------------------------------------|
D|-----7------------3------------8------------10------------101010--------|
A|-----7------------3------------8------------10------------101010--------|
D|-----7------------3------------8------------10------------101010--------|
				  			    . . .
(listen to song for strumming)
                                                          








E|------------------------------------------------------------------------| 
B|------------------------------------------------------------------------|
G|-----------------------999999-------------------------------------------|
D|-----------------------xxxxxx-77777-888888-333333-----------------------|
A|-77-777-8888888-333333-777777-77777-888888-333333-----------------------|
D|-77-777-8888888-333333--------77777-888888-333333-----------------------|
      ...

E|------------------------------------------------------------------------| 
B|------------------------------------------------------------------------|
G|-----------------------999999-------------------------------------------|
D|-----------------------xxxxxx-77777-888888-333333-----------------------|
A|-77-777-8888888-333333-777777-77777-888888-333333-----------------------|
D|-77-777-8888888-333333--------77777-888888-333333-----------------------|
      ...  









E|------------------------------------------------------------------------| 
B|------------------------------------------------------------------------|
G|-----------------------999999-------------------------------------------|
D|-----------------------xxxxxx-77777-888888-333333-----------------------|
A|-77-777-8888888-333333-777777-77777-888888-333333-----------------------|
D|-77-777-8888888-333333--------77777-888888-333333-----------------------|
      ... 

E|------------------------------------------------------------------------| 
B|------------------------------------------------------------------------|
G|-----------------------999999-------------------------------------------|
D|-----------------------xxxxxx-77777-888888-333333-----------------------|
A|-77-777-8888888-333333-777777-77777-888888-333333-----------------------|
D|-77-777-8888888-333333--------77777-888888-333333-----------------------|
      ...









E|------------------------------------------------------------------------| 
B|------------------------------------------------------------------------|
G|-12p0-11p0-9p0-14p0-12p0-12p11p12-9-------------------------------------|
D|------------------------------------------------------------------------|
A|------------------------------------------------------------------------|
D|------------------------------------------------------------------------|
(x8 / It's very faint, but its there)


E|------------------------------------------------------------------------| 
B|------------------------------------------------------------------------|
G|------------------------------------------------------------------------|
D|--7~~~~----3~~~~-----------7~~~~----3~~~~-------------------------------|
A|--7~~~~----3~~~~ //////----7~~~~----3~~~~---//////----------------------|
D|--7~~~~----3~~~~//////-----7~~~~----3~~~~--//////-----------------------|










E|------------------------------------------------------------------------| 
B|------------------------------------------------------------------------|
G|--------------------------------------------21-20-14--------------------|
D|------------------------------------------------------------------------|
A|------------------------------------------------------------------------|
D|------------------------------------------------------------------------|

E|------------------------------------------------------------------------| 
B|------------------------------------------------------------------------|
G|--10-----9------12-----11-----9-----10----------------------------------|
D|--12-----12-----10-----10-----7-----7-----------------------------------|
A|------------------------------------------------------------------------|
D|------------------------------------------------------------------------|
(lots of distortion / listen to song for strumming)










E|------------------------------------------------------------------------| 
B|------------------------------------------------------------------------|
G|--10-----9------12-----11-----9-----10----------------------------------|
D|--12-----12-----10-----10-----7-----7-----------------------------------|
A|------------------------------------------------------------------------|
D|------------------------------------------------------------------------|
(x2 /  listen to song for strumming)


E|--------------------------------------------------------------
B|--------------------------------------------------------------
G|--------------------------------------------------------------
D|-8888888-8888888-10101010101010-10101010101010-8888888-8888888
A|-8888888-8888888-10101010101010-10101010101010-8888888-8888888
D|-8888888-8888888-10101010101010-10101010101010-8888888-8888888

------------------------------|(this is still the rythm guitar) 
------------------------------|
------------------------------|
-10101010101010-10101010101010|
-10101010101010-10101010101010|
-10101010101010-10101010101010|(x2)












E|------------------------------------------------- 
B|-6--6-5-6---6--6-5-6---6--6-5-6---6--5h6p5-3---6-
G|-------------------------------------------------
D|-------------------------------------------------
A|-------------------------------------------------
D|-------------------------------------------------

-----------------------------------------------|
-5h6p5-3---6--5h6p5-3---6--5h6p5-3---6--5h6p5-3|
-----------------------------------------------|
-----------------------------------------------|
-----------------------------------------------|
-----------------------------------------------|


E|-------------------------------------------------- 
B|--------------------------------------------------
G|--------------------------------------------------
D|-----3---3p2---3-----3---3p2---3-----3---3p2---3--
A|-0-0---0-----0---0-0---0-----0---0-0---0-----0---0
D|--------------------------------------------------
   . .   .     .   . .   .     .   . .   .     .   .
---------------------------------------------------------------| 
---------------------------------------------------------------|
---------------------------------------------------------------|
---3---2h3p2-0-----3---2h3p2-0-----3---2h3p2-0-----3---2h3p2-0-|
-0---0---------0-0---0---------0-0---0---------0-0---0---------|
---------------------------------------------------------------|
 .   .         . .   .         . .   .         . .   .









E|------------------------------------------------------------------------| 
B|------------------------------------------------------------------------|
G|--10-----9------12-----11-----9-----10----------------------------------|
D|--12-----12-----10-----10-----7-----7-----------------------------------|
A|------------------------------------------------------------------------|
D|------------------------------------------------------------------------|
(listen to song for strumming)


E|--------------------------------------------------------------
B|--------------------------------------------------------------
G|--------------------------------------------------------------
D|-8888888-8888888-10101010101010-10101010101010-8888888-8888888
A|-8888888-8888888-10101010101010-10101010101010-8888888-8888888
D|-8888888-8888888-10101010101010-10101010101010-8888888-8888888

------------------------------|(this is still the rythm guitar) 
------------------------------|
------------------------------|
-10101010101010-10101010101010|
-10101010101010-10101010101010|
-10101010101010-10101010101010|(x2)











E|--------------------------------------------------------------| 
B|--------------------------------------------------------------|
G|-10----9-----7----10----9-----12----13----10----9-------------|
D|-x-----x-----x----x-----x-----x-----x-----x-----x-------------|
A|-12----10----9----12----12----10----12----12----12------------|
D|--------------------------------------------------------------|
(clean and very low, not too sure about this part though)


E|--------------------------------------------------------------| 
B|--------------------------------------------------------------|
G|--------------------------------------------------------------|
D|--------------------------------------------------------------|
A|--------------------------------------------------------------|
D|------------------------------------------------------000-----|
                                                        ...









E|------------------------------------------------------------------------| 
B|------------------------------------------------------------------------|
G|-----14--12--10--9--14--17--14--17--14--12--10--9--12--13--14--17-------|
D|-----x---x---x---x--x---x---x---x---x---x---x---x--x---x---x---x--------|
A|-----12--10--8---7--12--15--12--15--12--10--8---7--10--11--12--15-------|
D|------------------------------------------------------------------------|
(listen to song for strumming


E|------------------------------------------------------------------------| 
B|------------------------------------------------------------------------|
G|------------------------------------------------------------------------|
D|-----7------------3------------8------------10------------101010--------|
A|-----7------------3------------8------------10------------101010--------|
D|-----7------------3------------8------------10------------101010--------|
							    . . .
(listen to song for strumming)
                                                            










E|----------------------------------------------------------------|(x3)
B|----------------------------------------------------------------|    
G|-10101010 17171717 10101010 17171717-10101010--15151515-14141414|    
D|-x-x-x-x--x-x-x-x--x-x-x-x--x-x-x-x--x-x-x-x---x-x-x-x--x-x-x-x-|    
A|-8-8-8-8--15151515-8-8-8-8--15151515-8-8-8-8---13131313-12121212|    
D|----------------------------------------------------------------|    

------------|--------|(lead guitar)
------------|--------|(end with this little
-10-12-14-16|-17~~~~~|bit on the third time.)
-x--x--x--x-|-x------|(end on 15x17 only
-8--10-12-14|-15~~~~~|strum it once, let it ring.)
------------|--------|

E|-----------------------------------------------------------------------| 
B|-----------------------------------------------------------------------|
G|-----------------------------------------------------------------------|
D|-----7------------3------------8------------10------------101010--3~~~~|
A|-----7------------3------------8------------10------------101010--3~~~~|
D|-----7------------3------------8------------10------------101010--3~~~~|
							    . . .
(listen to song for strumming)





***********************************************

.     Palm mute

///// Pick slide

\     Slide down

p     Pull off

h     hammer on

x     Mute note

~     Let ring

***********************************************
                                                           
Tap to rate this tab
 
# A B C D E F G H I J K L M N O P Q R S T U V W X Y Z