Song name
# A B C D E F G H I J K L M N O P Q R S T U V W X Y Z

Escape The Fate - Guillotine tab

----------------------------------------------------------------------------
			     THE GUILLOTINE - Escape The Fate
----------------------------------------------------------------------------
Tabbed by: Kaelan Lupton
Email: kaelan.11@live.ca

Hey guys,
So i was trying to find a tab for the solo in this song,
and after looking at every tab i realized that they all seemed right,
except for the solo. Some people didnt even include the solo
because they couldnt figure it out, so i just decided to tab the solo
myself. I have spent countless hours listening to this solo, and im 99.9% sure
its completely correct. So to learn this song, check out another tab for the
guitar parts in the chorus, verse etc, and then come to this one to learn the solo.
Well, here goes nothin.

Tuning: Drop C

Guitar 1

e|--12-------------------12~---12b14-12---16-17-19-16-17-------------|
B|--12b14---12b14br12-10---------------------------------17----------|
G|--------------------------------------------------------/16--------|
D|-----------------------------------------------------------/9------|
A|-------------------------------------------------------------/9-/2-|
E|-------------------------------------------------------------------|

e|--------------------------------------------------------------------|
B|--------------------------------------------------------------------|
G|--------------6-8-9---------------7-9-11-----------------9-11-13----|
D|--------6-7-9--------------7-9-11----------------9-11-12------------|
A|-7-9-11-------------7-9-11---------------9-11-12--------------------|
E|--------------------------------------------------------------------|

e|--------------------------------------------------------------------|
B|--------------------------------------------------------------------|
G|--------------------11-13-14-------------------13-14-16-13-14-16----|
D|-----------11-12-14-------------------12-14-16----------------------|
A|--11-12-14-------------------12-14-16-------------------------------|
E|--------------------------------------------------------------------|

e|-----------------------------17-16----------------------------------|
B|--------------------------------------------------------------------|
G|--16b18rb16-14~-16b18rb16-14----------------------------------------|
D|--------------------------------------------------------------------|
A|--------------------------------------------------------------------|
E|--------------------------------------------------------------------|


Guitar 2 - very faintly in the background
e|--12-------------------12~---12b14-12---16-17-19-16-17-----------|
B|--12b14---12b14br12-10---------------------------------17--------|
G|-----------------------------------------------------------------|
D|-----------------------------------------------------------------|
A|-----------------------------------------------------------------|
E|-----------------------------------------------------------------|

e|----------------9-11-12-----------------10-12-14------------------12-14-16|
B|--------9-10-12----------------10-12-14------------------12-14-15---------|
G|9-11-13----------------9-11-13------------------11-13-14------------------|
D|--------------------------------------------------------------------------|
A|--------------------------------------------------------------------------|
E|--------------------------------------------------------------------------|

e|--------------------14-16-17-------------------16-17-19-16-17-19-|
B|-----------14-15-17-------------------15-17-19-------------------|
G|--13-14-16-------------------14-16-18----------------------------|
D|-----------------------------------------------------------------|
A|-----------------------------------------------------------------|
E|-----------------------------------------------------------------|

e|-16b17rb16-14~-16b17rb16-14-17-16--|
B|-----------------------------------|
G|-----------------------------------|
D|-----------------------------------|
A|-----------------------------------|
E|-----------------------------------|


************************************

| /   slide up
| \   slide down
| h   hammer-on
| p   pull-off
| ~   vibrato
| +   harmonic
| x   Mute note
| b   Bend
| pb  Pre-bend
| br  Bend release
| pbr Pre-bend release
| brb Bend release bend

************************************
Tap to rate this tab
 
# A B C D E F G H I J K L M N O P Q R S T U V W X Y Z