Song name
# A B C D E F G H I J K L M N O P Q R S T U V W X Y Z

Escape The Fate - Not Good Enough For Truth In Cliche chords

Highlighted       Show chord diagrams
Tabbed by MattRTS

Band: Escape the Fate
Song: Not Good Enough For Truth In Cliche
Tuning: D Tuning (DGCFAd)

Intro/Verse:                 
-----------------------------------------------------------------|
-----------------------------------------------------------------|
-----4---2-----------4---0-----------0---0-----------0---0-------|
---0---0---0---0---0---0---0---0---0---0---0---0---0---0---0---0-|
-3-----------3---5-----------5---2-----------2---3-----------3---|
-----------------------------------------------------------------|
 

-------------------------------------------------------------------|
-------------------------------------------------------------------|
-----4---2-----------4---0-----------0---0-----------0---0----0R---|
---0---0---0---0---0---0---0---0---0---0---0---0---0---0---0--0R---|
-3-----------3---5-----------5---2-----------2---3------------3R---|
-------------------------------------------------------------------|

Let's go!
C, D, B, C, B, C, B. x2

Verse 1:

C       D
Hurtful words,
        B                C
From my enemies of the last five years,
C           D            B      C
What's it like to die alone?
C                     D
How does it feel when tears freeze,
B        C
When you cry?
    C                      D           B     C
The blood in your veins is twenty below.

Chorus:
G
Sitting in this room playing Russian roulette,
D
Finger on the trigger to my dear Juliet,
B
Out from the window see her back drop silhouette,
C
This blood on my hands is something I cannot forget,

G
Sitting in this room playing Russian roulette,
D
Finger on the trigger to my dear Juliet,
B
Out from the window see her back drop silhouette,
     C
This blood on my hands is something I cannot forget,
C, D, B, C, B, C, B. x2
Something I cannot forget.

Verse 2:
C        D      B                  C
So for now, take this down a notch,
C                    D           B    C
Crash my car through your window,
C                D       B     C
Make sure you're still alive,
C                D    B    C
Just in time to kill you,

Chorus:
G
Sitting in this room playing Russian roulette,
D
Finger on the trigger to my dear Juliet,
B
Out from the window see her back drop silhouette,
C
This blood on my hands is something I cannot forget,

G
Sitting in this room playing Russian roulette,
D
Finger on the trigger to my dear Juliet,
B
Out from the window see her back drop silhouette,
     C
This blood on my hands is something I cannot forget,
C, D, B, C, B, C, B. x2
Something I cannot forget.

G       A          B          
I can't take this (take) anymore  x4


C        D      B                  C
So for now, take this down a notch,
C                    D           B    C
Crash my car through your window,
(Window)

Chorus:

G
Sitting in this room playing Russian roulette,
D
Finger on the trigger to my dear Juliet,
B
Out from the window see her back drop silhouette,
C
This blood on my hands is something I cannot forget,

G
Sitting in this room playing Russian roulette,
D
Finger on the trigger to my dear Juliet,
B
Out from the window see her back drop silhouette,
     C
This blood on my hands is something I cannot forget,
C, D, B, C, B, C, B. x2
Something I cannot forget.

Tap to rate this tab
 
# A B C D E F G H I J K L M N O P Q R S T U V W X Y Z