Song name
# A B C D E F G H I J K L M N O P Q R S T U V W X Y Z

Escape The Fate - Webs We Weave tab

pretty simple
got it by ear

|--------------------------------------------------------------------|
|--------------------------------------------------------------------|
|------------------------------17------------------------------------|
|--0-15-15-19-0-15-0-14-0-15-0----0-15-14----------------------------|
|--------------------------------------------------------------------|
|--------------------------------------------------------------------|

|--------------------------------------------------------------------|
|--------------------------------------------------------------------|
|--------------------------------------------------------------------|
|--0-15-15-19-0-15-0-14-0-15-0-17-0-14-------------------------------|
|--------------------------------------15----------------------------|
|--------------------------------------------------------------------|
Tap to rate this tab
 
# A B C D E F G H I J K L M N O P Q R S T U V W X Y Z