Song name
# A B C D E F G H I J K L M N O P Q R S T U V W X Y Z

Escape The Fate - My Apocalypse tab

-------------------------------------------------------------------------------
			     MY APOCALYPSE - Escape The Fate
-------------------------------------------------------------------------------

Tabbed by: GUITAR FUSION (Guitarfuse@gmail.com)


Tuning:CGCFAD


[Intro]
D|-----------------------------------------------------------|
A|-----8-8--8---------8--------------------------------------|
F|-----9-9--9---------9--------------9--9--9------------9----|
C|-----7-7--7---------7--------------10-10-10-----------10---|
G|--0--0-0--0----0----0----0----8----8--8--8------8-----8----|
C|-----------------------------------------------------------|

D|---------------------------------------------------------------|
A|--------8--8--8--------10-8---8--------------------------------|
F|--------9--9--9-------------9-----9---9--9--9--9--9--9--9------|
C|--------7--7--7-------------------10--10-10-10-10-10-10-10-----|
G|--0-----0--0--0---0---------------8---8--8--8--8--8--8--8------|
C|---------------------------------------------------------------|

[Guitar 1] [Rhythem Fig. 1]
D|-------------------------------------------------------------------|
A|-------------------------------------------------------------------|
F|-2-2-2-2-2-2-2-2-2-2-2-2-2-2-2-2-------------------5-5-5-5-5-5-5-5-|
C|-2-2-2-2-2-2-2-2-2-2-2-2-2-2-2-2--3-3-3-3-3-3-3-3--5-5-5-5-5-5-5-5-|
G|-0-0-0-0-0-0-0-0-0-0-0-0-0-0-0-0--3-3-3-3-3-3-3-3--3-3-3-3-3-3-3-3-|
C|----------------------------------3-3-3-3-3-3-3-3------------------|

[Guitar 2] [Rhythem Fig. 1]
D|15-12-----15-12------15-12-----15-12------------------15--12--------|
A|-----13-12------13-12-----13-12-----13-12---12--13--12-------13-12--|
F|------------------------------------------14------------------------|
C|--------------------------------------------------------------------|
G|--------------------------------------------------------------------|
C|--------------------------------------------------------------------|

  -----------------------|
  -15-13-13-12-13-12-13--|
  -----------------------|
  -----------------------|
  -----------------------|
  -----------------------|

[Guitar 1]
D|-------------------------------------------------------------------|
A|-------------------------------------------------------------------|
F|-2-2-2-2-2-2-2-2-2-2-2-2-2-2-2-2-----------------------------------|
C|-2-2-2-2-2-2-2-2-2-2-2-2-2-2-2-2--3-3-3-3-3-3-3-3--0-0-0-0-0-0-0-0-|
G|-0-0-0-0-0-0-0-0-0-0-0-0-0-0-0-0--3-3-3-3-3-3-3-3--0-0-0-0-0-0-0-0-|
C|----------------------------------3-3-3-3-3-3-3-3--0-0-0-0-0-0-0-0-|

[Guitar 2]
D|15-12-----15-12-----15-12-----15-12------------------15-12---------|
A|-----13-12-----13-12-----13-12-----13-12--12--13--12-------13-12---|
F|----------------------------------------14-------------------------|
C|-------------------------------------------------------------------|
G|-------------------------------------------------------------------|
C|-------------------------------------------------------------------|

  -----------12|
  12-13-12-13--|
  -------------|  [Rhythem Fig. 1 end]
  -------------|
  -------------|
  -------------|

Repeat [Rhythem Fig. 1]
but at the end, instead of playing:

  -----------12|
  12-13-12-13--|
  -------------|
  -------------|
  -------------|
  -------------|

play:

  ------------------------|
  12-13-12-13-15-13-12-13-|
  ------------------------|
  ------------------------|
  ------------------------|
  ------------------------|

"theres a place that i've found..."

D|-----------------------------------------------------------|
A|-----8-8--8---------8--------------------------------------|
F|-----9-9--9---------9--------------9--9--9------------9----|
C|-----7-7--7---------7--------------10-10-10-----------10---|
G|--0--0-0--0----0----0----0----8----8--8--8------8-----8----|
C|-----------------------------------------------------------|

"This place lies within....."

D|---------------------------------------------------------------|
A|--------8--8--8--------10-8---8--------------------------------|
F|--------9--9--9-------------9-----9---9--9--9--9--9--9--9------|
C|--------7--7--7-------------------10--10-10-10-10-10-10-10-----|
G|--0-----0--0--0---0---------------8---8--8--8--8--8--8--8------|
C|---------------------------------------------------------------|

"in a garden surrounded by fire and trees...."

D|-15--15--15--15--15--15--12--12--------------------------------|
A|---13--13--13--13--13--13--13--13------------------------------|
F|---------------------------------------------------------------|
C|---------------------------------------------------------------| x 4
G|---------------------------------------------------------------|
C|---------------------------------------------------------------|

ON LAST TIME PICKSLIDE INSTEAD OF PLAYING THE 12'S

"Never fall asleep..."
[Rhythem Fig. 2]
D|------------------------------------------------------------------------|
A|------8--------8----------------8-------8-------8-----------------------|
F|-2-2--9--2-2---9-----------5-5--9--2-2--9--2-2--9-----------------------|
C|-2-2--7--2-2---7--3-3---10-5-5--7--2-2--7--2-2--7--3-3---10-0-0--x-x-x-x|
G|-0-0-0---0-0-0----3-3---8--3-3-0---0-0-0---0-0-0---3-3---8--0-0--x-x-x-x|
C|------------------3-3-0----------------------------3-3-0----0-0--x-x-x-x|

play [Rhythem Fig. 1] x 2

"End transmission, the satillites are down....."

"i need an earthquake, to shake this, pity off the ground!"

D|-------------------------------------------------------------------|
A|-------------------------------------------------------------------|
F|-------------------------------------------------------------------|
C|---------------------------------------\\\\\\\\\\\\\\\\\\\\\-------|
G|---------------------------------------|pickslide|||||||||||-------|
C|---------------------------------------/////////////////////-------|

"just don't trust..."

D|----------------------------------------------------------|
A|----------------------------------------------------------|
F|-2--2--2--2--2--2--2-2--------------------5-5-5-5-5-5-5-5-|
C|-2--2--2--2--2--2--2-2---3-3-3-3-3-3-3-3--5-5-5-5-5-5-5-5-|
G|-0--0--0--0--0--0--0-0---3-3-3-3-3-3-3-3--3-3-3-3-3-3-3-3-|
C|-------------------------3-3-3-3-3-3-3-3------------------|

"Kill the words and hear these answers form!"

D|------------------------------------------------------------|
A|------------------------------------------------------------|
F|-2--2--2--2--2--2--2-2--------------------------------------|
C|-2--2--2--2--2--2--2-2---3-3-3-3-3-3-3-3---0-0-0-0-0-0-0-3~-|
G|-0--0--0--0--0--0--0-0---3-3-3-3-3-3-3-3---0-0-0-0-0-0-0-3~-|
C|-------------------------3-3-3-3-3-3-3-3---0-0-0-0-0-0-0-3~-|

Play [Rhythem Fig. 2]

Play [Rhythem Fig. 1]

[Breakdown]

 [Guitar 1]
D|-------------------------------------------------------------------------|
A|-13~-13~-12~-10~-13~-15~-12~--10~-13~--12~--10~--12~--13~--15~--17~--15~-|
F|-------------------------------------------------------------------------|
C|-------------------------------------------------------------------------|
G|-------------------------------------------------------------------------|
C|-------------------------------------------------------------------------|

 [Guitar 2][Acoustic]
D|----------------------------------------------------------------------|
A|--6-6-6-6-6-6-6---3-3-3-3-3-3-3---10-10-10-10-10-10-10--8-8-8-8-8-8-8-|
F|--5-5-5-5-5-5-5---2-2-2-2-2-2-2---9--9--9--9--9--9--9---7-7-7-7-7-7-7-|
C|--3-3-3-3-3-3-3---0-0-0-0-0-0-0---7--7--7--7--7--7--7---5-5-5-5-5-5-5-|x2
G|--3-3-3-3-3-3-3---0-0-0-0-0-0-0---7--7--7--7--7--7--7---5-5-5-5-5-5-5-|
C|--3-3-3-3-3-3-3---0-0-0-0-0-0-0---7--7--7--7--7--7--7---5-5-5-5-5-5-5-|

-----------------------------------SOLO-------------------------------------

[Part 1][slow]
D|-t12p5h7h8-t12p5h7h8-t13p5h7h8-t13p5h7h8-t10p5h7h8-t10p5h7h8-|
A|-------------------------------------------------------------|
F|-------------------------------------------------------------|
C|-------------------------------------------------------------|
G|-------------------------------------------------------------|
C|-------------------------------------------------------------|

D|-t15p5h7h8-t17p5h7h8-|
A|---------------------|
F|---------------------|
C|---------------------|
G|---------------------|
C|---------------------|

[Part 2][Moderate]
D|-t12p5h7h8-t12p5h7h8-t12p5h7h8-t12p5h7h8-t13p5h7h8-t13p5h7h8-|
A|-------------------------------------------------------------|
F|-------------------------------------------------------------|
C|-------------------------------------------------------------|
G|-------------------------------------------------------------|
C|-------------------------------------------------------------|

D|-t13p5h7h8-t13p5h7h8-t10p5h7h8-t10p5h7h8-t10p5h7h8-t10p5h7h8-|
A|-------------------------------------------------------------|
F|-------------------------------------------------------------|
C|-------------------------------------------------------------|
G|-------------------------------------------------------------|
C|-------------------------------------------------------------|

D|-t15p5h7h8-t15p5h7h8-t17p5h7h8-t17~-|
A|------------------------------------|
F|------------------------------------|
C|------------------------------------|
G|------------------------------------|
C|------------------------------------|

[Part 3][Fast]
D|-t12p5h7h8-x8-t13p5h7h8-x8-t10p5h7h8-x8-t15p5h7h8-x8-t17p5h7h8-x8-|
A|------------------------------------------------------------------|
F|------------------------------------------------------------------|
C|------------------------------------------------------------------|
G|------------------------------------------------------------------|
C|------------------------------------------------------------------|

[Part 4][Fast]
D|-t12p5h7h8-t13p5h7h8-t12p5h7h8-t15p5h7h8-|
A|-----------------------------------------|
F|-----------------------------------------|
C|-----------------------------------------|
G|-----------------------------------------|
C|-----------------------------------------|
                                             x4
D|-t12p5h7h8-t17p5h7h8-t12p5h7h8-t17p5h7h8-|
A|-----------------------------------------|
F|-----------------------------------------|
C|-----------------------------------------|
G|-----------------------------------------|
C|-----------------------------------------|

On the last time reapeating, tab and hold the last 17

[Part 5][Moderate-Fast]
D|8585-7555-7555-75-5050-|
A|-----------------------|   x4
F|-----------------------|
C|-----------------------|
G|-----------------------|
C|-----------------------|

D|-13p0-12p0-8p0-7p0-8p0-7p0-5p0-7p0-|
A|-----------------------------------|
F|-----------------------------------|
C|-----------------------------------|   x3
G|-----------------------------------|
C|-----------------------------------|

D|-800-700-500-7-575---|
A|---------------------|
F|---------------------|
C|---------------------|
G|---------------------|
C|---------------------|

D|--20--20--19--19-----------------------------------------|
A|------------------20--20--17--17-------------------------|
F|---------------------------------------------------------|
C|---------------------------------------------------------|  x12
G|---------------------------------------------------------|
C|---------------------------------------------------------|

D|20----------------------|
A|--17--------------------|
F|---------17-------------|
C|------------------------|
G|------------------------|
C|------------------------|
End Of Song

************************************

| /   slide up
| \   slide down
| h   hammer-on
| p   pull-off
| ~   vibrato
| +   harmonic
| x   Mute note
| b   Bend
| pb  Pre-bend
| br  Bend release
| pbr Pre-bend release
| brb Bend release bend

************************************
Tap to rate this tab
# A B C D E F G H I J K L M N O P Q R S T U V W X Y Z