Song name
# A B C D E F G H I J K L M N O P Q R S T U V W X Y Z

Escape The Fate - Bad Blood tab

Bad Blood solo by Escape The Fate

Email:bradyefitz@gmail.com
Tabbed by Brady


D|--------------------------------------------------------------|
A|-----------------18p15p11-18p15p11-18p15p11-------------------|
F|-14~---14~---19~----------------------------19p17p14-19p17p14-|
C|--------------------------------------------------------------|
G|--------------------------------------------------------------|
C|--------------------------------------------------------------|

D|---------------------------17-17~-----------------------------|
A|18p15p11-18p15p11-18p15p11------------------------------------|
F|----------------------------------19p17p14h17-19-19~----------|
C|-----------------------------------------------------15h17p15-|
G|--------------------------------------------------------------|
C|--------------------------------------------------------------|

D|-------------------------------------------------------------|
A|---15ph-13ph-------------13p11p10-13p11p10-13p11p10-13p11p10-|
F|--------------12p10p9h10-------------------------------------|
C|-------------------------------------------------------------|
G|17-----------------------------------------------------------|
C|-------------------------------------------------------------|

                             (17 15 13 19 not 1 7 1 5 1 3 or 1 9
C|---------------------------1717-1515-1313-1515-191919bend-to21-|
A|13p11p10-13p11p10-13p11p10-------------------------------------|
F|---------------------------------------------------------------|
C|---------------------------------------------------------------|
G|---------------------------------------------------------------|
C|---------------------------------------------------------------|

If somthing is wrong just send me an
email and I will try to fix it


~ vibrato
h hammer on 
p pull off
ph pinch harmonic
/ slide up
\ slide down
------------------------------------------------------------------
Tap to rate this tab
# A B C D E F G H I J K L M N O P Q R S T U V W X Y Z