Song name
# A B C D E F G H I J K L M N O P Q R S T U V W X Y Z

Escape The Fate - Behind The Mask tab

Escape The Fate behind The Mask solo

E:mail bradyefitz@gmail.com

When the fast picking comes in I said what notes to hit 
not how many times to hit them it would take to long to type 
and you can figure it out your self its not that complex


D|---------18-15h16p15---20--(gradyaly bend 15 to 17)
A|-13---18------------16-------------13-13-13-13-|
F|-15b----------------------13h15p13-15-16-17-17-|
C|-----------------------------------------------|
G|-----------------------------------------------|
C|-----------------------------------------------|

D|13----13------------------------|
A|--13----13---18-18ph------------|
F|----17----17---------13h15-13ph-|
C|--------------------------------|
G|--------------------------------|
C|--------------------------------|

Fast picking part

D|----------------20----21----20-------20-18------|
A|----21----23----------------------23-------20-21|
F|-22----22----22----22----22----22---------------|
C|------------------------------------------------|
G|------------------------------------------------|
C|------------------------------------------------|

D|--------------------------------------------18-------|
A|18-20-18-21-20-18-20-21-20-23-21-20-21-23-21---23-21-|
F|-----------------------------------------------------|
C|-----------------------------------------------------|
G|-----------------------------------------------------|
C|-----------------------------------------------------|

D|-------------------------------16p13------|
A|18-16-13-16-13-11------9-11-13-------18ph-|
F|------------------8-10--------------------|
C|------------------------------------------|
G|------------------------------------------|
C|------------------------------------------|


Sorry for everyone that dosnt have 24 frets

If there is any problem wich I am sure there is 
just send me an email and I will do my best to fix it

h hammer on
p pull off 
ph pinch harmonic
/slide up
\slide down
Tap to rate this tab
 
# A B C D E F G H I J K L M N O P Q R S T U V W X Y Z